Not Ready to Die Tabs & Lyrics by Avenged Sevenfold

Not Ready to Die

guitar tabs lyrics

Avenged Sevenfold

Album : Not Ready to DiePlayStop



-------------------------------------------------------------------------------
NOT READY TO DIE - Avenged Sevenfold
-------------------------------------------------------------------------------
Tabbed by: Christian Smith
Email: christiancold@gmail.com

Tuning: D A D G B e

The beginning can be read in many time signatures.
One is 3/4 3/4 4/4

or 6/4 4/4
or straight 5/4 (but its felt differently)
or 10/4...... (yeah right!)

Intro 0:29

Gtr 1 (Left)

e|--13--10-----------------------------13--------12------10--12--9----10--12--17--------|
B|----------11---------------------11--------11-----------------------------------------|
G|--------------10-------------10-------------------------------------------------------|
D|------------------12--8--12-----------------------------------------------------------|
A|--------------------------------------------------------------------------------------|
D|--------------------------------------------------------------------------------------|


Gtr 2 (Right)
e|--10-------------------------------10-------------------------------9--10----9--7--9--|
B|------11-------------------------------------9-------9--9/10----12--------------------|
G|----------10-------------------10--------10-------------------------------------------|
D|--------------12--8-----8--12---------------------------------------------------------|
A|---------------------8----------------------------------------------------------------|
D|--------------------------------------------------------------------------------------|



Heavy Intro 0:41

Gtr 1

e|--------------------------------------------------------------------------------|
B|--------------------------------------------------------------------------------|
G|--------------------------------------------------------------------------------|
D|--7--------------------------7-------6------5--2-----------------------5--2--3--|
A|-----8--5--0-----------0--5-------5---------------4--1-----------1--4-----------|
D|--------------3--0--3-----------------------------------5--2--5-----------------|x2

(2nd guitar part will be added later)


Pre-Verse 0:55
In 4/4

Gtr 1 (Left)
* (b) represents use of tremelo. Play the first written note; the rest of the segment
represents the pitch played.

e|-------------------------------------------------------|
B|--10b9b10~----8/10--8----------------------------------|
G|-----------------------10b7b10b7b10~----9/10--9\7~-----|
D|-------------------------------------------------------|
A|-------------------------------------------------------|
D|-------------------------------------------------------|


Gtr 2 (Right)


e|--13b12b13~----12/13--12\10b9b10b9b10~------------------|
B|------------------------------------------8/10--8\6~----|
G|--------------------------------------------------------|
D|--------------------------------------------------------|
A|--------------------------------------------------------|
D|--------------------------------------------------------|


Rhythm Gtrs. (Stereo)


e|-----------------------------------|
B|-----------------------------------|
G|-----------------------------------|
D|----0------x0--x0--x0--x0--x0--x0--|
A|----0------x0--x0--x0--x0--x0--x0--|
D|----0------x0--x0--x0--x0--x0--x0--| (play palm muted note till singing starts)


************************************

| / slide up
| \ slide down
| h hammer-on
| p pull-off
| ~ vibrato
| + harmonic
| x Mute note
| b Bend
| pb Pre-bend
| br Bend release
| pbr Pre-bend release
| brb Bend release bend

************************************



Just started this tab tonight and it is 100% correct. (if not, just email me)
I will finish the song and post it soon!

Like us on Facebook.....
-> Loading Time :0.0115 sec