No More Dead Tabs & Lyrics by Anti-Flag

No More Dead

guitar tabs lyrics

Anti-Flag

Album : Die for the Government punk PlayStop



-------------------------------------------------------------------------------
No More Dead - Anti-Flag
-------------------------------------------------------------------------------
Tabbed by:Dave291
Email:[email protected]

Tuning: standard


I donít know if its all right, but at least its something.


Guitar 1
e|-------3-3-3--3-3-3-------2-2-2--2-2-2------------------------------------|
B|-------0-0-0--0-0-0-------3-3-3--3-3-3------------------------------------|
G|-------0-0-0--0-0-0-------2-2-2--2-2-2------------------------------------|x4
D|--2~---0-0-0--0-0-0-------------------------------------------------------|
A|--2~---2-2-2--2-2-2-------------------------------------------------------|
E|--0~---3-3-3--3-3-3---2~--------------------------------------------------|
|
| Then Guitar 2 plays this over guitar 1 (00:12-00:23)
e|12-----------------12-----------------12-----------------12----------------|
B|---12----12----12-----12----12----12-----12----12----12-----12----12----12-|
G|------12----12-----------12----12-----------12----12-----------12----12----|
D|---------------------------------------------------------------------------|
A|---------------------------------------------------------------------------|
E|---------------------------------------------------------------------------|

Guitar 1
e|-------3-3-3--3-3-3-------2-2-2--2-2-2------------------------------------|
B|-------0-0-0--0-0-0-------3-3-3--3-3-3------------------------------------|
G|-------0-0-0--0-0-0-------2-2-2--2-2-2------------------------------------|x2
D|--2~---0-0-0--0-0-0-------------------------------------------------------|
A|--2~---2-2-2--2-2-2-------------------------------------------------------|
E|--0~---3-3-3--3-3-3---2~--------------------------------------------------|
|
|Guitar 2
e|--12-12--12-12--12-12--12-12--12-12--12-12--12-12--12-12--12-12--12-12-----|
B|--12-12--12-12--12-12--12-12--12-12--12-12--12-12--12-12--12-12--12-12-----|
G|---------------------------------------------------------------------------|
D|---------------------------------------------------------------------------|
A|---------------------------------------------------------------------------|
E|---------------------------------------------------------------------------|

Verse 1
e|-------3-3-3--3-3-3-------2-2-2--2-2-2------------------------------------|
B|-------0-0-0--0-0-0-------3-3-3--3-3-3------------------------------------|
G|-------0-0-0--0-0-0-------2-2-2--2-2-2------------------------------------|x4
D|--2~---0-0-0--0-0-0-------------------------------------------------------|
A|--2~---2-2-2--2-2-2-------------------------------------------------------|
E|--0~---3-3-3--3-3-3---2~--------------------------------------------------|


This is played right before the chorus
e|12-----------------12-----------------12-----------------12----------------|
B|---12----12----12-----12----12----12-----12----12----12-----12----12----12-|
G|------12----12-----------12----12-----------12----12-----------12----12----|
D|---------------------------------------------------------------------------|
A|---------------------------------------------------------------------------|
E|---------------------------------------------------------------------------|
|Guitar 1 plays this under
e|---------------------------------------------------------------------------|
B|---------------------------------------------------------------------------|
G|--999999--555555----------777777---999999--555555----------777777----------|
D|--999999--555555--555555--777777---999999--555555--555555--777777----------|
A|--777777--333333--555555--555555---777777--333333--555555--555555----------|
E|------------------333333---------------------------333333------------------|
****** ******
Chorus 1
e|---------------------------------------------------------------------------|
B|---------------------------------------------------------------------------|
G|--999999--555555----------777777---999999--555555----------777777----------|
D|--999999--555555--555555--777777---999999--555555--555555--777777----------|
A|--777777--333333--555555--555555---777777--333333--555555--555555----------|
E|------------------333333---------------------------333333------------------|

Guitar 1
e|-------3-3-3--3-3-3-------2-2-2--2-2-2------------------------------------|
B|-------0-0-0--0-0-0-------3-3-3--3-3-3------------------------------------|
G|-------0-0-0--0-0-0-------2-2-2--2-2-2------------------------------------|x2
D|--2~---0-0-0--0-0-0-------------------------------------------------------|
A|--2~---2-2-2--2-2-2-------------------------------------------------------|
E|--0~---3-3-3--3-3-3---2~--------------------------------------------------|
|
|Guitar 2
e|--12-12--12-12--12-12--12-12--12-12--12-12--12-12--12-12--12-12--12-12-----|
B|--12-12--12-12--12-12--12-12--12-12--12-12--12-12--12-12--12-12--12-12-----|
G|---------------------------------------------------------------------------|
D|---------------------------------------------------------------------------|
A|---------------------------------------------------------------------------|
E|---------------------------------------------------------------------------|

Verse 2
e|-------3-3-3--3-3-3-------2-2-2--2-2-2------------------------------------|
B|-------0-0-0--0-0-0-------3-3-3--3-3-3------------------------------------|
G|-------0-0-0--0-0-0-------2-2-2--2-2-2------------------------------------|x4
D|--2~---0-0-0--0-0-0-------------------------------------------------------|
A|--2~---2-2-2--2-2-2-------------------------------------------------------|
E|--0~---3-3-3--3-3-3---2~--------------------------------------------------|


This is played right before the chorus
e|12-----------------12-----------------12-----------------12----------------|
B|---12----12----12-----12----12----12-----12----12----12-----12----12----12-|
G|------12----12-----------12----12-----------12----12-----------12----12----|
D|---------------------------------------------------------------------------|
A|---------------------------------------------------------------------------|
E|---------------------------------------------------------------------------|
|Guitar 2 plays this under
e|---------------------------------------------------------------------------|
B|---------------------------------------------------------------------------|
G|--999999--555555----------777777---999999--555555----------777777----------|
D|--999999--555555--555555--777777---999999--555555--555555--777777----------|
A|--777777--333333--555555--555555---777777--333333--555555--555555----------|
E|------------------333333---------------------------333333------------------|
****** ******

Chorus 2
e|---------------------------------------------------------------------------|
B|---------------------------------------------------------------------------|
G|--999999--555555----------777777---999999--555555----------777777----------|
D|--999999--555555--555555--777777---999999--555555--555555--777777----------|
A|--777777--333333--555555--555555---777777--333333--555555--555555----------|
E|------------------333333---------------------------333333------------------|

|Guitar 1
e|---------------------------------------------------------------------------|
B|---------------------------------------------------------------------------|
G|--999999--555555----------777777---999999--555555----------777777----------|
D|--999999--555555--555555--777777---999999--555555--555555--777777----------|
A|--777777--333333--555555--555555---777777--333333--555555--555555----------|
E|------------------333333---------------------------333333------------------|
|
|Guitar 2
e|12-----------------12------------------------------------------------------|
B|---12----12----12-----12----12----12---------------------------------------|
G|------12----12-----------12----12------------------------------------------|
D|---------------------------------------------------------------------------|
A|---------------------------------------------------------------------------|
E|---------------------------------------------------------------------------|


I donít know solo yet

Prechorus
e|12-----------------12-----------------12-----------------12----------------|
B|---12----12----12-----12----12----12-----12----12----12-----12----12----12-|
G|------12----12-----------12----12-----------12----12-----------12----12----|
D|---------------------------------------------------------------------------|
A|---------------------------------------------------------------------------|
E|---------------------------------------------------------------------------|
|Guitar 2 plays this under
e|---------------------------------------------------------------------------|
B|---------------------------------------------------------------------------|
G|--999999--555555----------777777---999999--555555----------777777----------|
D|--999999--555555--555555--777777---999999--555555--555555--777777----------|
A|--777777--333333--555555--555555---777777--333333--555555--555555----------|
E|------------------333333---------------------------333333------------------|
****** ******

Chorus 3
e|---------------------------------------------------------------------------|
B|---------------------------------------------------------------------------|
G|--999999--555555----------777777---999999--555555----------777777----------|
D|--999999--555555--555555--777777---999999--555555--555555--777777----------|
A|--777777--333333--555555--555555---777777--333333--555555--555555----------|
E|------------------333333---------------------------333333------------------|

|Guitar 1
e|---------------------------------------------------------------------------|
B|---------------------------------------------------------------------------|
G|--999999--555555----------777777---999999--555555----------777777----------|
D|--999999--555555--555555--777777---999999--555555--555555--777777----------|
A|--777777--333333--555555--555555---777777--333333--555555--555555----------|
E|------------------333333---------------------------333333------------------|
|
|Guitar 2
e|12-----------------12------------------------------------------------------|
B|---12----12----12-----12----12----12---------------------------------------|
G|------12----12-----------12----12------------------------------------------|
D|---------------------------------------------------------------------------|
A|---------------------------------------------------------------------------|
E|---------------------------------------------------------------------------|


Iím not really sure on the end part
Guitar 1
e|---------------------------------------------------------------------------|
B|---------------------------------------------------------------------------|
G|---------------------------------------------------------------------------|
D|---------------------------------------------------------------------------|x4
A|-2-2-2-2-2-----------------------------------------------------------------|
E|-----------2-2-2-3-3-3-5-5-5-5-5-5-8-8-8-8-8-8-8-8-------------------------|
|Guitar 2
e|--12-12-12-12-12-12-12-12-12-12-12-12-12-12-12-12-12-12-12-12--------------|
B|--12-12-12-12-12-12-12-12-12-12-12-12-12-12-12-12-12-12-12-12--------------|
G|---------------------------------------------------------------------------|x4
D|---------------------------------------------------------------------------|
A|---------------------------------------------------------------------------|
E|---------------------------------------------------------------------------|

End on
e|---------------------------------------------------------------------------|
B|---------------------------------------------------------------------------|
G|---------------------------------------------------------------------------|
D|-2~------------------------------------------------------------------------|
A|-2~------------------------------------------------------------------------|
E|-0~------------------------------------------------------------------------|


| / slide up
| \ slide down
| h hammer-on
| p pull-off
| ~ vibrato
| + harmonic
| x Mute note
===============================================================================

Like us on Facebook.....
-> Loading Time :0.0151 sec