No Growing (Exegesis) Tabs & Lyrics by The Olivia Tremor Control

No Growing (Exegesis)

guitar tabs lyrics

The Olivia Tremor Control

Album : Music From The Unrealized Film Script: Dusk At Cubist Castle neo-psychedelia PlayStop



(Intro; some of these licks are played during the following verse):

G
. . . . . . . . .
E|-----------------------|3---3--33-3-3--33-3-3---------------|
B|-----------------------|3---3--33-3-3--33-3-3---------------|
G|-----------------------|0---0--00-0-0--00-0-0---------------|
D|-------------5---------|0---0--00-0-0--00-0-0---------5-----|
A|---0-0/2-5-7---7-5-2br-|2---2--22-2-2--22-2-2---0/2-57--7-2-|
E|-3---------------------|3---3--33-0-3--33-0-3-3-------------|


A C Cm
. . . . . . . . . . . . . . .
E|0---0--0-0-0-0-00---0--00-----------------------------------|
B|2---2--3-2-0-2-02---2--32-----------------------------------|
G|2---2--2-2-2-2-22---2--22-----------4-5-7--5-4h54-----------|
D|2---2--2-2-2-2-22---2-------------5-------------------------|
A|0---0--0-0-0-0-00---0-------0-2-3---------------------------|
E|------------------------------------------------------------|


G C/G
If I should discorporate

G A
Trying to illuminate the lines of my time

G C/G
Please tell the here and now

G
Present the case somehow

A
And open up their lines


C Cm Bm E
There is no growing in knowing where you're going

Am7 Cm G
Without the light inside


(Played during next part):

G D Em
E|---------------------------------------------------------|
B|12-----15------------------------------------------------|
G|12-----14-----12-12-3b4-4-4r3p2p0---12-12-3b4-4-4r3p2p0--|
D|12-----12-----14-14--------------3--14-14--------------3-|
A|---------------------------------------------------------|
E|---------------------------------------------------------|


G D Em
What do you do when the magic's gone?

G D Em
What do you do when the magic's gone away?

G D E
There is an ideal and I'm going to reach for it

G D E
There is an ideal and I'm going to try, to


G D
E|------------------------------------|
B|------------------------------------|
G|------------------------------------|
D|----------------------/4-7----/4-7--| x2
A|-----/2-5----/2-5--5-5-----5-5------|
E|--3-3-----3-3-----------------------|

G

G A
Open up your heart, open up your heart

C Cm Bm E
There is no growing in knowing where you're going

C Cm Bm E C Cm G
Without the light insi-ide, without the light inside

C Cm
Even without the light

Like us on Facebook.....
-> Loading Time :0.0066 sec