Murder Tabs & Lyrics by Sepultura

Murder

guitar tabs lyrics

Sepultura

Album : Arise thrash metal PlayStop


RDER
As recorded by Sepultura
(From the 1991 Album ARISE)

Transcribed by Jeff Jacobson, Paul Pappas, and Steve Gorenberg


Words by Max Cavalera and Andreas Kisser Music by Sepultura

G5
3 5 x x x x


C#5
x 4 6 x x x

Bb5
x 1 3 x x x

E5
0 2 x x x x

B5
x 2 4 x x x

E5/B
x 2 2 4 x x

D#5/A#
x 1 1 3 x x

Gtr I (E A D G B E) - 'Untitled'
Gtr II (E A D G B E) - 'Untitled'
Gtr III (E A D G B E) - 'Untitled'
Gtr IV (E A D G B E) - 'Untitled'
Gtr V (E A D G B E) - 'Lead Guitar'

Intro
Fast Rock Q=234
E5/C5 D#5 N.C.
4/4
Gtrs I, II
PM-----------------------
Q Q Q Q S S E S S E S S E S S E
|-------------||--------------------------|
|-------------||o-------------------------|
|-------------||--------------------------|
|-------------||--------------------------|
|----7--3--6--||o-------------------------|
|----7--3--6--||--0-0-0-0-0-0-0-0-0-0-0-0-|


E5/C5 D#5 N.C. B5 Bb5
-----| PM--------------------|
S S E Q Q Q 3x S S E S S E S S E S S E H H
|-----------------||-------------------------|-----------|
|----------------o||-------------------------|-----------|
|-----------------||-------------------------|-----------|
|-----------------||-------------------------|-4----3----|
|-------7--3--6--o||-------------------------|-2----1----|
|-0-0-0-7--3--6---||-0-0-0-0-0-0-0-0-0-0-0-0-|-----------|


E
Gtrs I, II
S S E S S E S S E S S E S S E S S E S S E S S E
| | | | | | | | | | | | | | | | | | | | | | | |
o / / / / / / / / / / / / / / / / / / / / / / /

Gtr III
a W +H E E E E
|----------------------------|--------------------------------|
|-8s11-----------------------|-(11)-----------11s==10-10---10-|
|----------------------------|--------------------------------|
|-5s=8-----------------------|--(8)------------8s===7--7----7-|
|----------------------------|--------------------------------|
|----------------------------|--------------------------------|
|
| Gtr IV
| a W +H E E E E
|----------------------------|--------------------------------|
|----------------------------|--------------------------------|
|----------------------------|--------------------------------|
|-7s=8-----------------------|--(8)------------8s===7--7----7-|
|----------------------------|--------------------------------|
|-5s=6-----------------------|--(6)------------6s===5--5----5-|


S S E S S E S S E S S E S S E S S E S S E S S E
| | | | | | | | | | | | | | | | | | | | | | | |
/ / / / / / / / / / / / / / / / / / / / / / / /

E Q. +H +Q.. S E E E E
|-------------------------------|--------------------------------------|
|-10s==13--------(13)-----------|-(13)-------------13-13s==14-14---14--|
|-------------------------------|--------------------------------------|
|--7s==10--------(10)-----------|-(10)-------------10-10s==11-11---11--|
|-------------------------------|--------------------------------------|
|-------------------------------|--------------------------------------|
|
| E Q. H +Q. E E E E E
|-------------------------------|--------------------------------------|
|-------------------------------|--------------------------------------|
|-------------------------------|--------------------------------------|
|--7s==10---------10------------|-(10)----------10----10s==11-11---11--|
|-------------------------------|--------------------------------------|
|--5s===8----------8------------|--(8)-----------8-----8s===9--9----9--|


S S E S S E S S E S S E S S E S S E S S E S S E
| | | | | | | | | | | | | | | | | | | | | | | |
/ / / / / / / / / / / / / / / / / / / / / / / /

E Q E +H +H E E E E
|---------------------------------|---------------------------------|
|-14s==11-----11-(11)-------------|-(11)------------11s==10-10---10-|
|---------------------------------|---------------------------------|
|-11s===8------8--(8)-----(8)-8-8-|---8----8---------8s===7--7----7-|
|---------------------------------|---------------------------------|
|---------------------------------|---------------------------------|
| E Q E +Q +S S E E Q. E E E E
|
| E Q E H +H E E E E
|---------------------------------|---------------------------------|
|---------------------------------|---------------------------------|
|---------------------------------|---------------------------------|
|-11s===8------8---8--------------|--(8)-------------8s===7--7----7-|
|---------------------------------|---------------------------------|
|--9s===6------6---6--------------|--(6)-------------6s===5--5----5-|


S S E S S E S S E S S E S S E S S E S S E S S E
| | | | | | | | | | | | | | | | | | | | | | | |
/ / / / / / / / / / / / / / / / / / / / / / / /

E Q E Q. E +E Q. E E E E
|---------------------------------|-----------------------------------|
|-10---13------13--13----------13-|-(13)---13---------13s==8-8---8----|
|---------------------------------|-----------------------------------|
|--7---10------10--10----------10-|-(10)---10---------10s==5-5---5----|
|---------------------------------|-----------------------------------|
|---------------------------------|-----------------------------------|
|
| E Q. +Q. E +E Q E E E E E
|---------------------------------|-----------------------------------|
|---------------------------------|-----------------------------------|
|---------------------------------|-----------------------------------|
|--7s==10---------(10)---------10-|-(10)---10------10-10s==5-5---5----|
|---------------------------------|-----------------------------------|
|--5s===8----------(8)----------8-|--(8)----8-------8--8s==3-3---3----|


Slower Q=196
E5 B5 F#Bb5
Gtrs I, II
W +W W +H Q E E
| | | | | | |
/ / / / / o /

Gtrs III, IV
W +W W +W
|----------|------------|----------|---------------||
|----------|------------|----------|---------------||
|----------|------------|----------|---------------||
|----------|------------|----------|---------------||
|-2--------|-(2)--------|-2--------|-(2)-----------||
|-0--------|-(0)--------|-0--------|-(0)-----------||


E5 B5 Bb5 E5 E5/B D#5/A#
Gtrs I, II
PM----------------------| PM----------------------| PM
E E E E E E E E E E E E Q E E 3x E E E E E E E E E E E E Q E E
||------------------|-----------------||-----------------|-----------------||
||o-----------------|----------------o||-----------------|-----------------||
||------------------|-----------------||-----------------|---------4----3--||
||------------------|---------4----3--||-----------------|---------2----1--||
||o-2-2-2-2-2-2-2-2-|-2-2-2-2-2----1-o||-2-2-2-2-2-2-2-2-|-2-2-2-2-2----1--||
||--0-0-0-0-0-0-0-0-|-0-0-0-0----2----||-0-0-0-0-0-0-0-0-|-0-0-0-0----0----||


1st Verse
E5 E5/B D#5/A# E5 E5/B D#5/A#
PM--------------------| PM PM--------------------| PM
+E E E E E E E E E E E E Q E E +E E E E E E E E E E E E Q E E
|-------------------|----------------|-------------------|----------------|
|-------------------|----------------|-------------------|----------------|
|-(3)---------------|---------4----3-|-(3)---------------|---------4----3-|
|-(1)---------------|---------2----1-|-(1)---------------|---------2----1-|
|-(1)-2-2-2-2-2-2-2-|-2-2-2-2-2----1-|-(1)-2-2-2-2-2-2-2-|-2-2-2-2-2----1-|
|-----0-0-0-0-0-0-0-|-0-0-0-0----0---|-----0-0-0-0-0-0-0-|-0-0-0-0----0---|


E5 E5/B D#5/A# E5
PM--------------------| PM PM----------------------------|
+E E E E E E E E E E E E Q E E +E E E E E E E E E E E E E E E E
|-------------------|----------------|-------------------|-----------------||
|-------------------|----------------|-------------------|-----------------||
|-(3)---------------|---------4----3-|-(3)---------------|-----------------||
|-(1)---------------|---------2----1-|-(1)---------------|-----------------||
|-(1)-2-2-2-2-2-2-2-|-2-2-2-2-2----1-|-(1)-2-2-2-2-2-2-2-|-2-2-2-2-2-2-2-2-||
|-----0-0-0-0-0-0-0-|-0-0-0-0----0---|-----0-0-0-0-0-0-0-|-0-0-0-0-0-0-0-0-||


F#5 C5 F#5 C5
Gtr II
PM| PM|
Q E E E E E E Q E E E E E E Q E E E E E E Q E E Q Q
|----------------|----------------|----------------|--------------|
|----------------|----------------|----------------|--------------|
|----------------|----------------|----------------|--------------|
|----------4-----|-5------5-5-5-5-|----------4-----|-5------5--5--|
|-4------3---3---|-3--3-3-3-3-3-3-|-4------3---3---|-3--3-3-3--3--|
|-2----2-------2-|----------------|-2----2-------2-|--------------|
|
| Gtr I
| PM| PM|
| Q E E E E E E Q E E Q Q Q E E E E E E Q E E Q Q
|----------------|----------------|----------------|--------------|
|----------------|----------------|----------------|--------------|
|----------------|----------------|----------------|--------------|
|----------4-----|-5------5---5---|----------4-----|-5------5--5--|
|-4------3---3-0-|-3--3-3-3---3---|-4------3---3-0-|-3--3-3-3--3--|
|-2----2---------|----------------|-2----2---------|--------------|


F#5 C5 F#5 C5
PM| PM|
Q E E E E E E Q E E E E E E Q E E E E E E Q E E Q Q
|----------------|----------------|----------------|--------------||
|----------------|----------------|----------------|--------------||
|----------------|----------------|----------------|--------------||
|----------4-----|-5------5-5-5-5-|----------4-----|-5------5--5--||
|-4------3---3---|-3--3-3-3-3-3-3-|-4------3---3---|-3--3-3-3--3--||
|-2----2-------2-|----------------|-2----2-------2-|--------------||
|
| PM|
| Q E E E E E E Q E E Q Q Q E E E E E E Q Q Q Q
|----------------|----------------|----------------|--------------||
|----------------|----------------|----------------|--------------||
|----------------|----------------|----------------|--------------||
|----------4-----|-5------5---5---|----------4-----|-5--5---5--5--||
|-4------3---3-0-|-3--3-3-3---3---|-4------3---3-0-|-3--3---3--3--||
|-2----2---------|----------------|-2----2---------|--------------||


2nd Verse
E5/B D#5/A#E5 E5/B D#5/A#E5
Gtrs I, II
PM PM--------------------| PM PM--------------------|
Q E E +E E E E E E E E E E E E Q E E +E E E E E E E E E E E E
||-------------------|-----------------|------------------|-------------------||
||o------------------|-----------------|------------------|------------------o||
||--4----3-(3)-------|-----------------|-4----3-(3)-------|-------------------||
||--2----1-(1)-------|-----------------|-2----1-(1)-------|-------------------||
||o-2----1-(1)-2-2-2-|-2-2-2-2-2-2-2-2-|-2----1-(1)-2-2-2-|-2-2-2-2-2-2-2-2--o||
||-----0-------0-0-0-|-0-0-0-0-0-0-0-0-|----0-------0-0-0-|-0-0-0-0-0-0-0-0---||


F#5 C5 F#5 C5
Gtr II
PM| PM|
Q E E E E E E Q E E E E E E Q E E E E E E Q E E Q Q
|----------------|----------------|----------------|--------------|
|----------------|----------------|----------------|--------------|
|----------------|----------------|----------------|--------------|
|----------4-----|-5------5-5-5-5-|----------4-----|-5------5--5--|
|-4------3---3---|-3--3-3-3-3-3-3-|-4------3---3---|-3--3-3-3--3--|
|-2----2-------2-|----------------|-2----2-------2-|--------------|
|
| Gtr I
| PM| PM|
| Q E E E E E E Q E E Q Q Q E E E E E E Q E E Q Q
|----------------|----------------|----------------|--------------|
|----------------|----------------|----------------|--------------|
|----------------|----------------|----------------|--------------|
|----------4-----|-5------5---5---|----------4-----|-5------5--5--|
|-4------3---3-0-|-3--3-3-3---3---|-4------3---3-0-|-3--3-3-3--3--|
|-2----2---------|----------------|-2----2---------|--------------|


F#5 C5 F#5 C5 G5
PM| PM|
Q E E E E E E Q E E E E E E Q E E E E E E Q E E E Q E
|----------------|----------------|----------------|---------------||
|----------------|----------------|----------------|---------------||
|----------------|----------------|----------------|---------------||
|----------4-----|-5------5-5-5-5-|----------4-----|-5------5------||
|-4------3---3---|-3--3-3-3-3-3-3-|-4------3---3---|-3--3-3-3-5--5-||
|-2----2-------2-|----------------|-2----2-------2-|----------3--3-||
|
| PM| PM|
| Q E E E E E E Q E E Q Q Q E E E E E E Q E E E Q E
|----------------|----------------|----------------|---------------||
|----------------|----------------|----------------|---------------||
|----------------|----------------|----------------|---------------||
|----------4-----|-5------5---5---|----------4-----|-5------5------||
|-4------3---3-0-|-3--3-3-3---3---|-4------3---3-0-|-3--3-3-3-5--5-||
|-2----2---------|----------------|-2----2---------|----------3--3-||


Faster Q=220
G#5 G5 G#5 G5
Gtrs I, II
PM--------| PM--------|
E S S E S S E Q E E S S E S S E Q E
||---------------------|--------------------|
||o--------------------|--------------------|
||---------------------|--------------------|
||---------------------|--------------------|
||o-6-------------5--5-|-6-------------5--5-|
||--4-0-0-0-0-0-0-3--3-|-4-0-0-0-0-0-0-3--3-|


G#5 N.C. G5
PM--------| ~
E S S E S S E Q E H +E Q E 3x
|--------------------|------------------||
|--------------------|-----------------o||
|--------------------|------------------||
|--------------------|------------------||
|-6-------------6--6-|-5----(5)-5--5---o||
|-4-0-0-0-0-0-0-7--7-|-6----(6)-3--3----||


G#5 G5 G#5 G5 G#5 E5/B D#5/A#
PM--------| PM--------| PM--------|
E S S E S S E Q E E S S E S S E Q E E S S E S S E Q E W
|--------------------|--------------------|--------------------|------|
|--------------------|--------------------|--------------------|------|
|--------------------|--------------------|--------------------|------|
|--------------------|--------------------|--------------------|------|
|-6-------------5--5-|-6-------------5--5-|-6-------------7--7-|-6----|
|-4-0-0-0-0-0-0-3--3-|-4-0-0-0-0-0-0-3--3-|-4-0-0-0-0-0-0-7--7-|-6----|


Slower Q=204
B5/F# C5/G N.C. D5
PM----------------------------|
W W E E E E E E E E E E E E E E E E
|----------|----------|-----------------|-----------------|
|----------|----------|-----------------|-----------------|
|----------|----------|-----------------|-----------------|
|----------|----------|-----------------|---------------7-|
|-2--------|-3--------|-----------------|---------------5-|
|-2--------|-3--------|-0-0-0-0-0-0-0-0-|-0-0-0-0-0-0-0---|


C#5 N.C. D#5 D5 D#D5 Bb5 A5 Bb5 A5G5
PM PM PM------| PM PM|
Q. E Q. E Q E E E E E E Q E E Q E E E E E E E E E E
||----------------|----------------|---------------|-------------------||
||o---------------|----------------|---------------|------------------o||
||----------------|----------------|---------------|-------------------||
||--6------6------|-6------------8s|=7----8s7------|-------------------||
||o-4------4------|-4------------6s|=5----6s5------|-8-8-7-7-8-8-7-5--o||
||-------3------3-|----0-0-0-0-0---|----0------0-0-|-6-6-5-5-6-6-5-3---||


G5 C#5 G5
Gtr I
W W W H.. E
| | | | |
/ / / / /

Gtr II
PM| PM--| PM| PM--| PM| PM--| PM| PM--|
E E E E E E E E E E E E E E E E E E E E E E E E E E E E E E E E
|-----------------|-----------------|-----------------|-------------------|
|-----------------|-----------------|-----------------|-------------------|
|-----------------|-----------------|-----------------|-------------------|
|-----------------|-----------------|-----------------|-------------------|
|-4-----6-5-------|-4-----6-5-------|-4-----6-5-------|-4-------6-5-------|
|---3-0-----0-0-0-|---3-0-----0-0-0-|---3-0-----0-0-0-|-----3-0-----0-0-0-|


C#5
H. Q +Q. E +Q. E
| | | | | |
/ / / / / /

PM| PM--| PM| PM--|
E E E E E E E E E E E E E E E E
|------------------|---------------------|
|------------------|---------------------|
|------------------|---------------------|
|------------------|---------------------|
|-4------6-5-------|--4------6--5--------|
|----3-0-----0-0-0-|-----3-0-------0-0-0-|


D
W +H. Q
| | |
/ / o

PM| PM--| PM| PM--|
E E E E E E E E E E E E E E E E
|-----------------|-------------------||
|-----------------|-------------------||
|-----------------|-------------------||
|-----------------|-------------------||
|-4-----6-5-------|--4------6-5-------||
|---3-0-----0-0-0-|-----3-0-----0-0-0-||


3rd Verse
E5/B D#5/A#E5 E5/B D#5/A#E5
Gtrs I, II
PM PM--------------------| PM PM--------------------|
Q E E +E E E E E E E E E E E E Q E E +E E E E E E E E E E E E
||-------------------|-----------------|------------------|-------------------||
||o------------------|-----------------|------------------|------------------o||
||--4----3-(3)-------|-----------------|-4----3-(3)-------|-------------------||
||--2----1-(1)-------|-----------------|-2----1-(1)-------|-------------------||
||o-2----1-(1)-2-2-2-|-2-2-2-2-2-2-2-2-|-2----1-(1)-2-2-2-|-2-2-2-2-2-2-2-2--o||
||-----0-------0-0-0-|-0-0-0-0-0-0-0-0-|----0-------0-0-0-|-0-0-0-0-0-0-0-0---||


G5 C#5
Gtr I
W +H.. E W H. Q
| | | | | |
/ / / / / /

Gtr II
PM| PM--| PM| PM--| PM| PM--| PM| PM--|
E E E E E E E E E E E E E E E E E E E E E E E E E E E E E E E E
|-----------------|--------------------|-----------------|------------------|
|-----------------|--------------------|-----------------|------------------|
|-----------------|--------------------|-----------------|------------------|
|-----------------|--------------------|-----------------|------------------|
|-4-----6-5-------|--4-------6-5-------|-4-----6-5-------|-4------6-5-------|
|---3-0-----0-0-0-|------3-0-----0-0-0-|---3-0-----0-0-0-|----3-0-----0-0-0-|


G5 C#5
W W Q. E +H W
| | | | | |
/ / / / / /

PM| PM--| PM| PM--| PM| PM--| PM| PM--|
E E E E E E E E E E E E E E E E E E E E E E E E E E E E E E E E
|-----------------|-----------------|-------------------|-----------------||
|-----------------|-----------------|-------------------|-----------------||
|-----------------|-----------------|-------------------|-----------------||
|-----------------|-----------------|-------------------|-----------------||
|-4-----6-5-------|-4-----6-5-------|-4------6--5-------|-4-----6-5-------||
|---3-0-----0-0-0-|---3-0-----0-0-0-|----3-0------0-0-0-|---3-0-----0-0-0-||


N.C. (E5)
Gtr II
PM| PM--|
E E E E E E E E 4x Q Q Q Q
||----------------------||-----------------|
||o--------------------o||-----------------|
||----------------------||-----------------|
||----------------------||-----------------|
||o-10-----12-11-------o||-2-------2-------|
||-----9-0-------0-0-0--||-0-------0-------|
|
| Gtr I
| PM| PM--| PM| PM--|
| E E E E E E E E 4x E E E E E E E E
||----------------------||-----------------|
||o--------------------o||-----------------|
||----------------------||-----------------|
||----------------------||-----------------|
||o--4------6--5-------o||-4-----6-5-------|
||-----3-0-------0-0-0--||---3-0-----0-0-0-|


Faster Q=226
N.C.
PM| PM------|
Q Q Q Q E E E E E S S S S E 7x
|-----------------||------------------------||
|-----------------||o----------------------o||
|-----------------||------------------------||
|-----------------||------------------------||
|-2-------2-------||o-4-----6-5------------o||
|-0-------0-------||----3-0-----0-0-0-0-0---||
|
| PM| PM--| PM| PM------|
| E E E E E E E E E E E E E S S S S E 7x
|-----------------||------------------------||
|-----------------||o----------------------o||
|-----------------||------------------------||
|-----------------||------------------------||
|-4-----6-5-------||o-4-----6-5------------o||
|---3-0-----0-0-0-||----3-0-----0-0-0-0-0---||


Guitar Solo
B5 Bb5 E
Gtrs I, II
W S S E S S E S S E S S E
| | | | | | | | | | | |
o / / / / / / / / / / /

Gtrs I, II Gtr V
|---3----| |---3----| |---3----| |---3----|
Q Q Q Q E E E E E E E E E E E E
|-------------||-12p==11p==7p0h==7h==11-12p==11p==7p0h==7h==11-|
|-------------||-----------------------------------------------|
|-------------||-----------------------------------------------|
|-4--4--3--3--||-----------------------------------------------|
|-2--2--1--1--||-----------------------------------------------|
|-------------||-----------------------------------------------|


S S E S S E S S E S S E
| | | | | | | | | | | |
/ / / / / / / / / / / /

|---3----| |---3----| |---3----| |---3----|
E E E E E E E E E E E E
|-12p==11p==7p0h==7h==11-12p==11p==7p0h==7h==11-|
|-----------------------------------------------|
|-----------------------------------------------|
|-----------------------------------------------|
|-----------------------------------------------|
|-----------------------------------------------|


S S E S S E S S E S S E
| | | | | | | | | | | |
/ / / / / / / / / / / /

|---3----| |---3----| |---3----| |-----3-----|
E E E E E E E E E E E S S
|-12p==11p==7p0h==7h==11-12p==11p==7p0h==7h==11-12p|
|--------------------------------------------------|
|--------------------------------------------------|
|--------------------------------------------------|
|--------------------------------------------------|
|--------------------------------------------------|


B Bb E
E S S S S S S E S S S S S S S S E S S E S S E S S E
| | | | | | | | | | | | | | | | | | | | | | | | | |
o / / / / / / o / / / / / / o / / / / / / / / / / /

S E. S E. +Q +E E E E E S S E E S S E
|-11p8s====5h7------(7)-----(7)s==4---|-4---0-4---4p2p0---6-6p4p0----|
|-------------------------------------|------------------------------|
|-------------------------------------|------------------------------|
|-------------------------------------|------------------------------|
|-------------------------------------|------------------------------|
|-------------------------------------|------------------------------|


S S E S S E S S E S S E S S E S S E S S E S S E
| | | | | | | | | | | | | | | | | | | | | | | |
/ / / / / / / / / / / / / / / / / / / / / / / /

S S E E S S E E S S E S S E E S S E S S S S E
|-7p6p0-9---9p7p0---11-11p9p0-|-12p11p0-14---14p12p0---17s16-16p14p0--|
|-----------------------------|---------------------------------------|
|-----------------------------|---------------------------------------|
|-----------------------------|---------------------------------------|
|-----------------------------|---------------------------------------|
|-----------------------------|---------------------------------------|


B Bb
E S S S S S S E S S S S S S
| | | | | | | | | | | | | |
o / / / / / / o / / / / / /

~~
H +Q. E
|-18-------------(18)\-------------|
|------------------------------9s==|
|----------------------------------|
|------------------------------6s==|
|----------------------------------|
|----------------------------------|


G#
E S S S S S S S S S S S S S S S S S S S S S S S S S S S S S S
| | | | | | | | | | | | | | | | | | | | | | | | | | | | | | |
o / / / / / / / / / / / / / / / / / / / / / / / / / / / / / /

TP TP
Q H. W
|----------------------------------|----------------------------------|
|-17-----17------------------------|-16-------------------------------|
|----------------------------------|----------------------------------|
|-14-----14------------------------|-13-------------------------------|
|----------------------------------|----------------------------------|
|----------------------------------|----------------------------------|


S S S S S S S S S S S S S S S S
| | | | | | | | | | | | | | | |
/ / / / / / / / / / / / / / / /

TP TP
a H H
|--------------------------------------|
|-16s12---------------13---------------|
|--------------------------------------|
|-13s=9---------------10---------------|
|--------------------------------------|
|--------------------------------------|


F E G#
E S S S S S S E S S S S S S E S S S S S S S S S S S S S S
| | | | | | | | | | | | | | | | | | | | | | | | | | | | |
o / / / / / / o / / / / / / o / / / / / / / / / / / / / /

\0.5/
TP ~~~~~
a H H H +H
|-----------------------------------|--------------------------------------|
|-13s16-------------16\-------------|--------------------------------------|
|-----------------------------------|-5-----------------(5)----------------|
|-10s13-------------13\-------------|--------------------------------------|
|-----------------------------------|-3-----------------(3)----------------|
|-----------------------------------|--------------------------------------|


S S S S S S S S S S S S S S S S
| | | | | | | | | | | | | | | |
/ / / / / / / / / / / / / / / /

\3.5_________________
H +H
|--------------------------------------|
|--------------------------------------|
|-4---------------(4)------------------|
|--------------------------------------|
|-2---------------(2)------------------|
|--------------------------------------|


F E
S S S S S S S S S S S S S S S S E S S S S S S E S S S S S S
| | | | | | | | | | | | | | | | | | | | | | | | | | | | | |
/ / / / / / / / / / / / / / / / o / / / / / / o / / / / / /

/ \7
+W +H. +Q
|-----------------------------------|-----------------------------------|
|-----------------------------------|-----------------------------------|
|-(4)-------------------------------|-(4)-------------------(4)---------|
|-----------------------------------|-----------------------------------|
|-(2)-------------------------------|-(2)-------------------(2)---------|
|-----------------------------------|-----------------------------------|


N.C. Bb5
Gtrs I, II
PM--------------------|
S S E S S E S S E S S E 3x W +W
||---------------------------||----------|--------||
||o-------------------------o||----------|--------||
||---------------------------||----------|--------||
||---------------------------||-3--------|-(3)----||
||o-------------------------o||-1--------|-(1)----||
||--0-0-0-0-0-0-0-0-0-0-0-0--||----------|--------||


Slower Q=204
E5 B5 Bb5 N.C.
PM----------------------| PM------------------------------|
E E E E E E E E E E E E Q E E 3x E E E E E E E E E E E E E E E E
||------------------|-----------------||-----------------|------------------|
||o-----------------|----------------o||-----------------|------------------|
||------------------|-----------------||-----------------|------------------|
||------------------|---------4----3--||-----------------|------------------|
||o-2-2-2-2-2-2-2-2-|-2-2-2-2-2----1-o||-----------------|------------------|
||--0-0-0-0-0-0-0-0-|-0-0-0-0----2----||-0-0-0-0-0-0-0-0-|-0-0-0-0-0-0-0-0--|


Bb5
Gtrs I, II
W +W
| |
/ /

Gtr III
~~ ~~
|-3--|
E E E E Q. E +E E E E E H
|-----------------|---------------------|
|-----------------|---------------------|
|-----10-8-9----9-|-(9)-9-12p10p9-10----|
|-8-8-------------|---------------------|
|-----------------|---------------------|
|-----------------|---------------------|
|
| Gtr IV
| ~~ ~~
| |-3--|
| E E E E Q. E +E E E E E H
|-----------------|---------------------|
|-----------------|---------------------|
|-----10---9----9-|-(9)-9-12p10p9-10----|
|-8-8----8--------|---------------------|
|-----------------|---------------------|
|-----------------|---------------------|


B5 F#Bb5
W +H Q E E
| | | | |
/ / / o /

~ ~~~
|-3--|
E E E E H E E E E E Q. +E
|---------------|-----------------------------|
|---------------|-----------------------------|
|-----10---9----|--9-9-12p10p9-10-----(10)\---|
|-8-8----8------|-----------------------------|
|---------------|-----------------------------|
|---------------|-----------------------------|
|
| ~ ~~~
| |-3--|
| E E E E H E E E E E Q. +E
|---------------|-----------------------------|
|---------------|-----------------------------|
|-----10---9----|--9-9-12p10p9-10-----(10)\---|
|-8-8----8------|-----------------------------|
|---------------|-----------------------------|
|---------------|-----------------------------|


E5
E E E E E E E E E E E E E E E E
| | | | | | | | | | | | | | | |
/ / / / / / / / / / / / / / / /

Gtrs III, IV
~
a W a H E Q.
|-------------------|--------------------|
|-------------------|--------------------|
|-------------------|--------------------|
|-------------------|-5s6-------6s9------|
|-5s7---------------|--------------------|
|-------------------|--------------------|


E E E E E E E E E E E E E E E E
| | | | | | | | | | | | | | | |
/ / / / / / / / / / / / / / / /

~~
|--3--|
E Q. +Q E E E H. +Q
|-------------------------|---------------------|
|-------------------------|---------------------|
|-------------------------|---------------------|
|-9p8------(8)---11p9p==8-|-9------------(9)\---|
|-------------------------|---------------------|
|-------------------------|---------------------|


Bb5
W +W
| |
/ /

Gtr III
~~ ~~
|-3--|
E E E E Q. E +E E E E E H
|-----------------|---------------------|
|-----------------|---------------------|
|-----10---9----9-|-(9)-9-12p10p9-10----|
|-8-8----8--------|---------------------|
|-----------------|---------------------|
|-----------------|---------------------|
|
| Gtr IV
| ~~ ~~
| |-3--|
| E E E E Q. E +E E E E E H
|-----------------|---------------------|
|-----------------|---------------------|
|-----10---9----9-|-(9)-9-12p10p9-10----|
|-8-8----8--------|---------------------|
|-----------------|---------------------|
|-----------------|---------------------|


W +W
| |
/ /

~~~~~~~~~~~~
E E E E H H +E +Q.
|---------------|-----------------------||
|---------------|-----------------------||
|-----10---9----|-[9]----([9])-(9)\-----||
|-8-8----8------|-----------------------||
|---------------|-----------------------||
|---------------|-----------------------||
|
| ~~~
| E E E E H H. Q
|---------------|-----------------------||
|---------------|-----------------------||
|-----10---9----|-10--------------------||
|-8-8----8------|-------------------9\--||
|---------------|-----------------------||
|---------------|-----------------------||


4th Verse
E5/B D#5/A#E5 E5/B D#5/A# E5
Gtrs I, II
PM PM--------------------| PM
Q E E +E E E E E E E E E E E E 4x Q E E H Q E E Q Q
||-------------------|------------------||-------------|---------------*|
||o------------------|-----------------o||-------------|---------------*|
||--4----3-(3)-------|------------------||-4----3------|---------------*|
||--2----1-(1)-------|------------------||-2----1------|---------------*|
||o-2----1-(1)-2-2-2-|-2-2-2-2-2-2-2-2-o||-2----1------|----2-2-2------*|
||-----0-------0-0-0-|-0-0-0-0-0-0-0-0--||----0--------|----0-0-0------*|



Duration Legend
---------------
W - whole; H - half; Q - quarter; E - 8th; S - 16th; T - 32nd; X - 64th; a - acciaccatura
+ - note tied to previous; . - note dotted; .. - note double dotted
Uncapitalized letters represent notes that are staccato (1/2 duration)
Irregular groupings are notated above the duration line
Duration letters will always appear directly above the note/fret number it represents the
duration for. Duration letters with no fret number below them represent rests. Multi-
bar rests are notated in the form Wxn, where n is the number of bars to rest for. Low
melody durations appear below the staff

Tablature Legend
----------------
h - hammer-on
p - pull-off
b - bend
pb - pre-bend
r - bend release (if no number after the r, then release immediately)
/\ - slide into or out of (from/to "nowhere")
s - legato slide
S - shift slide
- natural harmonic
[n] - artificial harmonic
n(n) - tapped harmonic
~ - vibrato
tr - trill
T - tap
TP - trem. picking
PM - palm muting
\n/ - tremolo bar dip; n = amount to dip
\n - tremolo bar down
n/ - tremolo bar up
/n\ - tremolo bar inverted dip
= - hold bend; also acts as connecting device for hammers/pulls
- volume swell (louder/softer)
x - on rhythm slash represents muted slash
o - on rhythm slash represents single note slash

Misc Legend
-----------
| - bar
|| - double bar
||o - repeat start
o|| - repeat end
*| - double bar (ending)
: - bar (freetime)
$ - Segno
& - Coda
Tempo markers - = BPM(8/16=s8/s16), where s8 = swing 8ths, s16 = swing 16ths


Like us on Facebook.....
-> Loading Time :0.0136 sec