Moonlight Tabs & Lyrics by Labyrinth

Moonlight

guitar tabs lyrics

Labyrinth

Album : Return to Heaven Denied power metal PlayStop




MOONLIGHT
As recorded by Labyrinth
(From the 1998 Album RETURN TO HEAVEN DENIED)

Transcribed by Pete (Delirium_Veil)


Words by Olaf Thorsen Music by Labyrinth
Arranged by Labyrinth


Gtr I (E A D G B E) - 'Olaf Thorsen'
Gtr II (E A D G B E) - 'Anders Rain'
Gtr III (E A D G B E) - 'Olaf Thorsen'
Gtr IV (E A D G B E) - 'Anders Rain'
Gtr V (E A D G B E) - 'Guitar fills'

Intro
Q=160
4/4
Gtr I
W E E E E E E E E E E E E E E E E E E E E E E E E
|----------|-5-----5-----5---|-5-----5-----5---|-5-----5-----5---|
|----------|---2-3---2-3---2-|---2-3---2-3---2-|---2-3---2-3---2-|
|----------|-----------------|-----------------|-----------------|
|----------|-----------------|-----------------|-----------------|
|----------|-----------------|-----------------|-----------------|
|----------|-----------------|-----------------|-----------------|
|
| Gtr II
| W E E E E E E E E E E E E E E E E E E E E E E E E
|----------|-9-----9-----9---|-9-----9-----9---|-9-----9-----9---|
|----------|---5-7---5-7---5-|---5-7---5-7---5-|---5-7---5-7---5-|
|----------|-----------------|-----------------|-----------------|
|----------|-----------------|-----------------|-----------------|
|----------|-----------------|-----------------|-----------------|
|----------|-----------------|-----------------|-----------------|


E E E E E E E E E E E E E E E E E E E E E E E E
|-5-----5-----5---|-5-----5-----5---|-5-----5-----5---|
|---2-3---2-3---2-|---2-3---2-3---2-|---2-3---2-3---2-|
|-----------------|-----------------|-----------------|
|-----------------|-----------------|-----------------|
|-----------------|-----------------|-----------------|
|-----------------|-----------------|-----------------|
|
| E E E E E E E E E E E E E E E E E E E E E E E E
|-9-----9-----9---|-9-----9-----9---|-9-----9-----9---|
|---5-7---5-7---5-|---5-7---5-7---5-|---5-7---5-7---5-|
|-----------------|-----------------|-----------------|
|-----------------|-----------------|-----------------|
|-----------------|-----------------|-----------------|
|-----------------|-----------------|-----------------|


Gtr III
E E E E E E E E E E E E E E E E
|-5-----5-----5---|--5------5-----5---|
|---2-3---2-3---2-|-----2-3---2-3---2-|
|-----------------|-------------------|
|-----------------|-------------------|
|-----------------|-------------------|
|-----------------|-------------------|
|
| Gtr IV
| E E E E E E E E E E E E E E E E
|-----------------|-------------------|
|-----------------|-------------------|
|-----------------|-------------------|
|-7-----7-----7---|--7------7-----7---|
|---4-5---4-5---4-|-----4-5---4-5---4-|
|-----------------|-------------------|
|
| Gtr V
| \1
| ~
| W +W
|-----------------|-------------------|
|-----------------|-------------------|
|-----------------|-------------------|
|-----------------|-------------------|
|-----------------|-------------------|
|-7---------------|-(7)---------------|


E E E E E E E E E E E E E E E E
|--5-------5-----5---|---5------5-----5----|
|------2-3---2-3---2-|------2-3---2-3---2--|
|--------------------|---------------------|
|--------------------|---------------------|
|--------------------|---------------------|
|--------------------|---------------------|
|
| E E E E E E E E E E E E E E E E
|--------------------|---------------------|
|--------------------|---------------------|
|--------------------|---------------------|
|--7-------7-----7---|---7------7-----7----|
|------4-5---4-5---4-|------4-5---4-5---4--|
|--------------------|---------------------|
|
| \1/ \1
| W +W
|--------------------|---------------------|
|-19-----------------|-(19)----------------|
|--------------------|---------------------|
|--------------------|---------------------|
|--------------------|---------------------|
|--------------------|---------------------|


E E E E E E E E E E E E E E E E
|---5-----5-----5---|--5-----5------5---|
|-----2-3---2-3---2-|----2-3----2-3---2-|
|-------------------|-------------------|
|-------------------|-------------------|
|-------------------|-------------------|
|-------------------|-------------------|
|
| E E E E E E E E E E E E E E E E
|-------------------|-------------------|
|-------------------|-------------------|
|-------------------|-------------------|
|---7-----7-----7---|--7-----7------7---|
|-----4-5---4-5---4-|----4-5----4-5---4-|
|-------------------|-------------------|
|
| ~~~~~~~~~~~~~~~~~~~~~~~~~~~~~~~~~~~~~
| W H H
|-------------------|-------------------|
|-/12---------------|-14-------15-------|
|-------------------|-------------------|
|-------------------|-------------------|
|-------------------|-------------------|
|-------------------|-------------------|


E E E E E E E E E E E E E E E E
|--5------5-------5-----|--5-----5-----5----|
|-----2-3---2-3-------2-|----2-3---2-3---2--|
|-----------------------|-------------------|
|-----------------------|-------------------|
|-----------------------|-------------------|
|-----------------------|-------------------|
|
| E E E E E E E E E E E E E E E E
|-----------------------|-------------------|
|-----------------------|-------------------|
|-----------------------|-------------------|
|--7------7-------7-----|--7-----7-----7----|
|-----4-5---4-5-------4-|----4-5---4-5---4--|
|-----------------------|-------------------|
|
|~~~~~ ~~
| H. +E E W
|-17------------(17)-19-|-17----------------|
|-----------------------|-------------------|
|-----------------------|-------------------|
|-----------------------|-------------------|
|-----------------------|-------------------|
|-----------------------|-------------------|


B5 A5
E E E E E E E E E E E E E E E E
|-17-------17-------17----|-17-------17-------17s19-|
|----14-15----14-15----14-|----14-15----14-15-------|
|-------------------------|-------------------------|
|-------------------------|-------------------------|
|-------------------------|-------------------------|
|-------------------------|-------------------------|
|
| E E E E E E E E E E E E E E E E
|-14-------14-------14----|-14-------14-------14s15-|
|----10-12----10-12----10-|----10-12----10-12-------|
|-------------------------|-------------------------|
|-------------------------|-------------------------|
|-------------------------|-------------------------|
|-------------------------|-------------------------|
|
| W W
|-------------------------|-------------------------|
|-------------------------|-------------------------|
|-------------------------|-------------------------|
|--9----------------------|--7----------------------|
|--9----------------------|--7----------------------|
|--7----------------------|--5----------------------|


G5 D5 A5
E E E E E E E E E E E E E E E E
|-17-------17-------17----|-17-------17-------17-----|
|----14-15----14-15----14-|----14-15----14-15----14--|
|-------------------------|--------------------------|
|-------------------------|--------------------------|
|-------------------------|--------------------------|
|-------------------------|--------------------------|
|
| E E E E E E E E E E E E E E E E
|-14-------14-------14----|-14-------14-------14-----|
|----10-12----10-12----10-|----10-12----10-12----10--|
|-------------------------|--------------------------|
|-------------------------|--------------------------|
|-------------------------|--------------------------|
|-------------------------|--------------------------|
|
| W H H
|-------------------------|--------------------------|
|-------------------------|--------------------------|
|-------------------------|--7-----------------------|
|--5----------------------|--7-----------7-----------|
|--5----------------------|--5-----------7-----------|
|--3----------------------|--------------5-----------|


Bm A
E E E E E E E E E E E E E E E E
|-17-------17-------17----|-17-------17-------17s19-|
|----14-15----14-15----14-|----14-15----14-15-------|
|-------------------------|-------------------------|
|-------------------------|-------------------------|
|-------------------------|-------------------------|
|-------------------------|-------------------------|
|
| E E E E E E E E E E E E E E E E
|-14-------14-------14----|-14-------14-------14s15-|
|----10-12----10-12----10-|----10-12----10-12-------|
|-------------------------|-------------------------|
|-------------------------|-------------------------|
|-------------------------|-------------------------|
|-------------------------|-------------------------|
|
| W W
|-------------------------|-------------------------|
|-------------------------|-------------------------|
|-------------------------|-------------------------|
|-------------------------|-------------------------|
|--5----------------------|--4----------------------|
|--7----------------------|--5----------------------|


G D5 A5
E E E E E E E E E E E E E E E E
|-17-------17-------17----|-17-------17-------17-----|
|----14-15----14-15----14-|----14-15----14-15----14--|
|-------------------------|--------------------------|
|-------------------------|--------------------------|
|-------------------------|--------------------------|
|-------------------------|--------------------------|
|
| E E E E E E E E E E E E E E E E
|-14-------14-------14----|-14-------14-------14-----|
|----10-12----10-12----10-|----10-12----10-12----10--|
|-------------------------|--------------------------|
|-------------------------|--------------------------|
|-------------------------|--------------------------|
|-------------------------|--------------------------|
|
| W H H
|-------------------------|--------------------------|
|-------------------------|--------------------------|
|-------------------------|--7-----------------------|
|-------------------------|--7-----------7-----------|
|--2----------------------|--5-----------7-----------|
|--3----------------------|--------------5-----------|


Verse
B5 A5
Gtrs III, IV
PM------------------------| PM------------------------|
E S S S S S S S S S S S S S S E S S S S S S S S S S S S S S
||--------------------------------|--------------------------------|
||o-------------------------------|--------------------------------|
||--------------------------------|--------------------------------|
||--------------------------------|--------------------------------|
||o-9-----------------------------|-7------------------------------|
||--7-7-7-7-7-7-7-7-7-7-7-7-7-7-7-|-5-5-5-5-5-5-5-5-5-5-5-5-5-5-5--|


G5 D5 A5
PM------------------------|
E S S S S S S S S S S S S S S H H
|-------------------------------|------------||
|-------------------------------|-----------o||
|-------------------------------|-7----------||
|-------------------------------|-7----7-----||
|-5-----------------------------|-5----7----o||
|-3-3-3-3-3-3-3-3-3-3-3-3-3-3-3-|------5-----||


Pre-Chorus
$
N.C.(F#5) B5
PM--| PM| PM--| PM| PM------------------------|
E S S E E E E E E E S S E E E E E E E S S S S S S S S S S S S S S
||--------------------|-------------------|-------------------------------|
||o-------------------|-------------------|-------------------------------|
||--------------------|-------------------|-------------------------------|
||--4-------4-----4s5-|-4-------4-----4s5-|-4-----------------------------|
||o-------------------|-------------------|-2-2-2-2-2-2-2-2-2-2-2-2-2-2-2-|
||----2-2-2---2-2-----|---2-2-2---2-2-----|-------------------------------|


E5/B G5/D F#5/C#
W H H E E H.
|----------|------------||-----------||
|----------|-----------o||-----------||
|-4--------|-7----6-----||-6---------||
|-2--------|-5----4-----||-4---------||
|-2--------|-5----4----o||-4---------||
|----------|------------||-----------||


Chorus
$$
B5 A5
PM---------------------------
W +W E S S S S S S S S S S S S S S
|----------|------------|-------------------------------|
|----------|------------|-------------------------------|
|-4--------|-(4)--------|-2-----------------------------|
|-4--------|-(4)--------|-2-----------------------------|
|-2--------|-(2)--------|-0-0-0-0-0-0-0-0-0-0-0-0-0-0-0-|
|----------|------------|-------------------------------|


-------------------------------|
S S S S S S S S S S S S S S S S
|---------------------------------|
|---------------------------------|
|---------------------------------|
|---------------------------------|
|-0-0-0-0-0-0-0-0-0-0-0-0-0-0-0-0-|
|---------------------------------|


E5 D5 A5
PM------------------------|
W +W E S S S S S S S S S S S S S S W
|----------|------------|-------------------------------|------|
|----------|------------|-------------------------------|------|
|----------|------------|-7-----------------------------|-2----|
|-2--------|-(2)--------|-7-----------------------------|-2----|
|-2--------|-(2)--------|-5-5-5-5-5-5-5-5-5-5-5-5-5-5-5-|-0----|
|-0--------|-(0)--------|-------------------------------|------|


B5
PM---------------------------
E S S S S S S S S S S S S S S
|-------------------------------|
|-------------------------------|
|-4-----------------------------|
|-4-----------------------------|
|-2-2-2-2-2-2-2-2-2-2-2-2-2-2-2-|
|-------------------------------|


A5
-------------------------------|
S S S S S S S S S S S S S S S S W +W
|---------------------------------|----------|--------|
|---------------------------------|----------|--------|
|---------------------------------|-2--------|-(2)----|
|---------------------------------|-2--------|-(2)----|
|-4-5-4-2-4-5-4-2-4-5-4-2-4-5-4-2-|-0--------|-(0)----|
|---------------------------------|----------|--------|


E5
PM---------------------------
E S S S S S S S S S S S S S S
|-------------------------------|
|-------------------------------|
|-------------------------------|
|-2-----------------------------|
|-2-----------------------------|
|-0-0-0-0-0-0-0-0-0-0-0-0-0-0-0-|


To Dbl. Coda
D5 A5
-------------------------------|
S S S S S S S S S S S S S S S S W W
|---------------------------------|----------|-------||
|---------------------------------|----------|-------||
|---------------------------------|-7--------|-2-----||
|---------------------------------|-7--------|-2-----||
|---------------------------------|-5--------|-0-----||
|-2-3-2-0-2-3-2-0-2-3-2-0-2-3-2-0-|----------|-------||


N.C.(B5)
PM----| PM----|
E S S E E E S S E E E E E Q E +E E
||----------------------|------------------|
||o---------------------|---2-3-2----------|
||--4---------4---------|-4--------4-(4)-2-|
||----------------------|------------------|
||o---2-2-2-2---2-2-2-2-|------------------|
||----------------------|------------------|


PM----| PM----|
E S S E E E S S E E E E E Q E +E E
|---------------------|--------------------||
|---------------------|---2-3-2-----------o||
|-4---------4---------|-4--------4-(4)-2---||
|---------------------|--------------------||
|---2-2-2-2---2-2-2-2-|-------------------o||
|---------------------|--------------------||


Bridge
To Coda
B5
W +W W +W
||-----------|------------|----------|----------||
||o----------|------------|----------|---------o||
||--4--------|-(4)--------|-4--------|-(4)------||
||--4--------|-(4)--------|-4--------|-(4)------||
||o-2--------|-(2)--------|-2--------|-(2)-----o||
||-----------|------------|----------|----------||


B5
PM| ~ PM| ~ PM| PM| ~ PM| ~ PM| ~
Q E E Q E E Q E E E E E E Q E E Q E E Q E E E E Q
||----------------|----------------|---------------|----------------||
||o---------------|----------------|---------------|---------------o||
||--4------4------|----------------|-4------4------|----------------||
||--4-------------|-4------5-4-2-4-|-4-------------|-4------5-4-2---||
||o-2--2-2----2-2-|----2-2---------|-2--2-2----2-2-|----2-2--------o||
||----------------|----------------|---------------|----------------||


B5
W +W W W
|----------|------------|----------|------|
|----------|------------|----------|------|
|-4--------|-(4)--------|----------|------|
|-4--------|-(4)--------|----------|------|
|-2--------|-(2)--------|----------|------|
|----------|------------|----------|------|


W W W S S S S S S S S S S S S S S S S
|----------|----------|----------|----------------------------------|
|----------|----------|----------|----------------------------------|
|----------|----------|----------|----------------------------------|
|----------|----------|----------|----------------------------------|
|----------|----------|----------|----------------------------------|
|----------|----------|----------|-xSxSxSxSxSxSxSxSxSxSxSxSxSxSxSx\-|


B5
PM| ~ PM| ~ PM| PM| ~ PM| ~ PM| ~
Q E E Q E E Q E E E E E E Q E E Q E E Q E E E E Q
|---------------|----------------|---------------|----------------|
|---------------|----------------|---------------|----------------|
|-4------4------|----------------|-4------4------|----------------|
|-4-------------|-4------5-4-2-4-|-4-------------|-4------5-4-2---|
|-2--2-2----2-2-|----2-2---------|-2--2-2----2-2-|----2-2---------|
|---------------|----------------|---------------|----------------|


Gtr III
PM| ~ PM| ~ PM|
Q E E Q E E Q E E E E E E
|---------------|----------------|
|---------------|----------------|
|-4------4------|----------------|
|-4-------------|-4------5-4-2-4-|
|-2--2-2----2-2-|----2-2---------|
|---------------|----------------|
|
| Gtr IV
| PM| ~ PM| ~ PM|
| Q E E Q E E Q E E E E E E
|---------------|----------------|
|---------------|----------------|
|-4------4------|----------------|
|-4-------------|-4------5-4-2-4-|
|-2--2-2----2-2-|----2-2---------|
|---------------|----------------|


E5
PM--------------------------------------|
E E E E E E E E E E E E S S S S S S S S
|-----------------|---------------------------||
|-----------------|---------------------------||
|-----------------|---------------------------||
|-----------------|---------------------------||
|-2-2-2-2-2-2-2-2-|-2-2-2-2-5-4-2-------------||
|-0-0-0-0-0-0-0-0-|-0-0-0-0-------5-3-2-3-5---||
|
| PM--------------------------------------|
| E E E E E E E E E E E E S S S S S S S S
|-----------------|---------------------------||
|-----------------|---------------------------||
|-----------------|---------------------------||
|-----------------|---------4-2-0-------------||
|-2-2-2-2-2-2-2-2-|-2-2-2-2-------4-2-0-2-4---||
|-0-0-0-0-0-0-0-0-|-0-0-0-0-------------------||


Verse
B5 A5 G5 D5 A5
Gtrs III, IV
W W W H H
|----------|----------|----------|-----------|
|----------|----------|----------|-----------|
|----------|----------|----------|-7---------|
|-9--------|-7--------|-5--------|-7----7----|
|-9--------|-7--------|-5--------|-5----7----|
|-7--------|-5--------|-3--------|------5----|


B5 A5
PM------------------------| PM------------------------|
E S S S S S S S S S S S S S S E S S S S S S S S S S S S S S
|-------------------------------|-------------------------------|
|-------------------------------|-------------------------------|
|-------------------------------|-------------------------------|
|-------------------------------|-------------------------------|
|-9-----------------------------|-7-----------------------------|
|-7-7-7-7-7-7-7-7-7-7-7-7-7-7-7-|-5-5-5-5-5-5-5-5-5-5-5-5-5-5-5-|


D.S. al Coda
G5 D5 A5
PM------------------------|
E S S S S S S S S S S S S S S H H
|-------------------------------|-----------||
|-------------------------------|-----------||
|-------------------------------|-7---------||
|-------------------------------|-7----7----||
|-5-----------------------------|-5----7----||
|-3-3-3-3-3-3-3-3-3-3-3-3-3-3-3-|------5----||


Solo - Anders Rain
&
B5
Gtr IV
|------5------|
Q E +Q +E Q +Q +E S S S S S Q +E
|----------------------------|-----------------------------10---(10)s|
|-15--14-(14)b15r==(14)------|--------------------------12-----------|
|-----------------------11---|-(11)--(11)------------11--------------|
|----------------------------|------------------12-------------------|
|----------------------------|------------10h14----------------------|
|----------------------------|---------------------------------------|
|
| Gtr III
| PM| ~ PM| ~~~~ PM-|
| Q E E Q E E Q E E E E E E
|----------------------------|---------------------------------------|
|----------------------------|---------------------------------------|
|--4-------------4-----------|---------------------------------------|
|--4-------------------------|---4-----------------5--------4-2---4--|
|--2---2---2-------------2-2-|---------2---2-------------------------|
|----------------------------|---------------------------------------|


~~ ~~
H +Q Q H +H
|-14------(14)--15---|-14------(14)b15r=======|
|--------------------|------------------------|
|--------------------|------------------------|
|--------------------|------------------------|
|--------------------|------------------------|
|--------------------|------------------------|
|
| PM| ~~~~ PM| ~~ PM| ~
| Q E E Q E E Q E E E E Q
|--------------------|------------------------|
|--------------------|------------------------|
|--4--------4--------|------------------------|
|--4-----------------|--4--------5-----4-2----|
|--2--2-2--------2-2-|-----2-2----------------|
|--------------------|------------------------|


E E E E E E E E E E E E E E E E
|-12-15-14-15-12-15-10-15-|----15-14-15-12-15-10-15-|
|-------------------------|-14----------------------|
|-------------------------|-------------------------|
|-------------------------|-------------------------|
|-------------------------|-------------------------|
|-------------------------|-------------------------|
|
| PM| ~~ PM| ~~ PM|
| Q E E Q E E Q E E E E E E
|-------------------------|-------------------------|
|-------------------------|-------------------------|
|--4-----------4----------|-------------------------|
|--4----------------------|--4-----------5--4--2--4-|
|--2-----2--2--------2--2-|--------2--2-------------|
|-------------------------|-------------------------|


|--3--| |--3---| |--3---| |-3--|
E E E E E E E E E E E E E E E E E E E E
|----14-12-14-10-14----14-|--------------------------------------|
|-12----------------14----|-14p12p10-----------------------------|
|-------------------------|----------12p11p==9-------------------|
|-------------------------|--------------------12p11p==9---------|
|-------------------------|------------------------------12p10p9-|
|-------------------------|--------------------------------------|
|
| PM| ~~ PM| ~~~ PM---| ~~~
| Q E E Q E E Q E E E E Q
|-------------------------|--------------------------------------|
|-------------------------|--------------------------------------|
|--4-----------4----------|--------------------------------------|
|--4----------------------|--4------------------5----4----2------|
|--2-----2--2--------2--2-|-----------2----2---------------------|
|-------------------------|--------------------------------------|


~~
E H +E S S E
|---------------------------|
|---------------------------|
|---------------------------|
|------------------------12-|
|-12s14-------(14)-12s14----|
|---------------------------|
|
| PM| ~ PM---|
| Q E E Q E E
|---------------------------|
|---------------------------|
|--4--------4---------------|
|--4------------------------|
|--2----2-2---------2-----2-|
|---------------------------|


~~~ ~~~~~~~
|--3--|
S S S E. E. E. E. E S S +E +H.
|----------------------------------12-|-12s14-(14)-(14)-----------|
|----------------12----14----15-------|---------------------------|
|-------------------------------------|---------------------------|
|-11h12p11----------------------------|---------------------------|
|----------14-------------------------|---------------------------|
|-------------------------------------|---------------------------|
|
| ~~~ PM----| PM-| ~ PM|
| Q E E E E E E Q E E Q E E
|-------------------------------------|---------------------------|
|-------------------------------------|---------------------------|
|-------------------------------------|--4----------------4-------|
|--4--------------------5--4-----2--4-|--4------------------------|
|--------------2-----2----------------|--2-----------2--2----2-2--|
|-------------------------------------|---------------------------|


T
|------5------|
+Q S S S S S S S S S S S S S
|-(14)----------------15h19-24p19p15-------------|
|------------------17----------------17----------|
|-------------16------------------------16----16-|
|----------17------------------------------19----|
|-------19---------------------------------------|
|------------------------------------------------|
|
| ~~~~ PM------| ~~
| Q E E E E Q
|------------------------------------------------|
|------------------------------------------------|
|------------------------------------------------|
|---4---------------------5-----4-----2----------|
|--------2-------2-------------------------------|
|------------------------------------------------|


~~
H +E E +E E H. +E +E
|----------------------------|---------------------------|
|-17------(17)-19-(19)-19b20-|-19b20===========(19)r(19)-|
|----------------------------|---------------------------|
|----------------------------|---------------------------|
|----------------------------|---------------------------|
|----------------------------|---------------------------|
|
| PM| ~~~~ PM-| ~~~~~~ PM|
| Q E E Q E E Q E E E E E E
|----------------------------|---------------------------|
|----------------------------|---------------------------|
|--4--------4----------------|---------------------------|
|--4-------------------------|--4----------5-4---2----4--|
|--2--2-2-----------2---2----|---------2-2---------------|
|----------------------------|---------------------------|


E5
|------5------| |------5------| |------5------| |------5------|
S S S S S S S S S S S S S S S S S S S S
|---------------------------------------------------------------------|
|---------------------------------------------------------------------|
|---------------------------------------------------------------------|
|------------14-16-17-16-14--------------------14-16-17-16-14---16-17-|
|-14-16-17--------------------17-16-14-16-17--------------------------|
|---------------------------------------------------------------------|
|
| E E E E E E E E
|---------------------------------------------------------------------|
|---------------------------------------------------------------------|
|---------------------------------------------------------------------|
|---------------------------------------------------------------------|
|--2-------2--------2-------2--------2-------2--------2-------2-------|
|--0-------0--------0-------0--------0-------0--------0-------0-------|


|-----5-----| |-----5-----| |-----5-----| |-----5-----|
S S S S S S S S S S S S S S S S S S S S
|-------------------------------------------------15-17-19-17--|
|----------15-17-19-17-15----------------15-17-19--------------|
|-14-16-18----------------18-16-14-16-18-----------------------|
|--------------------------------------------------------------|
|--------------------------------------------------------------|
|--------------------------------------------------------------|
|
| W
|--------------------------------------------------------------|
|--------------------------------------------------------------|
|--------------------------------------------------------------|
|--2-----------------------------------------------------------|
|--2-----------------------------------------------------------|
|--0-----------------------------------------------------------|


Solo - Olaf Thorsen
B5
~~~~~~~~~~~~~~~~~~~~~~~~~~~~~~~~~~~~~~~~~~~~~~~~~~~~~~~~~~~~~~~~~~~~~~~~~~~~~~~~~
W
|-19-------------------------------------------------------------------------------|
|----------------------------------------------------------------------------------|
|----------------------------------------------------------------------------------|
|----------------------------------------------------------------------------------|
|----------------------------------------------------------------------------------|
|----------------------------------------------------------------------------------|
|
| |-------5-------| |--------5--------| |--------5--------| |-------5--------|
| S S S S S S S S S S S S S S S S S S S S
|-14-12-10--------------10---12---14---12-10----------------10-12-14---12---10---9-|
|------------14p==12h14----------------------14p==12h==14--------------------------|
|----------------------------------------------------------------------------------|
|----------------------------------------------------------------------------------|
|----------------------------------------------------------------------------------|
|----------------------------------------------------------------------------------|
|
| Gtr V
| PM------------------------------------------------------------------|
| E S S S S S S S S S S S S S S
|----------------------------------------------------------------------------------|
|----------------------------------------------------------------------------------|
|----------------------------------------------------------------------------------|
|----------------------------------------------------------------------------------|
|--9-------------------------------------------------------------------------------|
|--7-------7----7-----7----7----7----7-----7----7----7----7-----7----7----7----7---|


A5
~~~~~~
+W
|-(19)---------------------------------------------------------------------------|
|--------------------------------------------------------------------------------|
|--------------------------------------------------------------------------------|
|--------------------------------------------------------------------------------|
|--------------------------------------------------------------------------------|
|--------------------------------------------------------------------------------|
|
| |-------5-------| |-------5--------| |-------5--------| |-------5-------|
| S S S S S S S S S S S S S S S S S S S S
|--12--10-9--------------9---10---12---10-9----------------9-10-12---10---9---7--|
|-------------12p==10h12--------------------12p==10h==12-------------------------|
|--------------------------------------------------------------------------------|
|--------------------------------------------------------------------------------|
|--------------------------------------------------------------------------------|
|--------------------------------------------------------------------------------|
|
| PM--------------------------------------------------------------|
| E S S S S S S S S S S S S S S
|--------------------------------------------------------------------------------|
|--------------------------------------------------------------------------------|
|--------------------------------------------------------------------------------|
|--------------------------------------------------------------------------------|
|---7----------------------------------------------------------------------------|
|---5-------5----5-----5---5----5----5----5----5----5----5----5----5----5---5----|


G5
|-----5------| |------5-------| |-------5-------| |------5-------|
S S S S S S S S S S S S S S S S S S S S
|-10-9-7-------------7---9---10---9-7---------------7-9-10---9---7---9-|
|----------10p==8h10------------------10p==8h==10----------------------|
|----------------------------------------------------------------------|
|----------------------------------------------------------------------|
|----------------------------------------------------------------------|
|----------------------------------------------------------------------|
|
| PM--------------------------------------------------------|
| E S S S S S S S S S S S S S S
|----------------------------------------------------------------------|
|----------------------------------------------------------------------|
|----------------------------------------------------------------------|
|----------------------------------------------------------------------|
|--5-------------------------------------------------------------------|
|--3-----3----3----3---3---3----3---3----3---3----3---3----3---3---3---|


D5 A5
~~~ ~~
Q. E H
|-10----------10S==17-------------|
|---------------------------------|
|---------------------------------|
|---------------------------------|
|---------------------------------|
|---------------------------------|
|
| PM---------| PM--------|
| E S S S S S S E S S S S S S
|---------------------------------|
|---------------------------------|
|---------------------------------|
|--7------------------------------|
|--5--5-5-5-5--5-5--7-------------|
|-------------------5-5-5-5-5-5-5-|


B5
Gtr III
T
|-------5-------| |--------5--------| |--------5--------| |--------5--------|
S S S S S S S S S S S S S S S S S S S S
|-14p10----------------------10h==14p==10-19p14p==10------------------------10h==14-|
|-------12--------------12-----------------------------12--------------12-----------|
|------------11------11-------------------------------------11----11----------------|
|-----------------12-------------------------------------------12-------------------|
|-----------------------------------------------------------------------------------|
|-----------------------------------------------------------------------------------|
|
| Gtr IV
| PM------------------------------------------------------------------|
| E S S S S S S S S S S S S S S
|-----------------------------------------------------------------------------------|
|-----------------------------------------------------------------------------------|
|-----------------------------------------------------------------------------------|
|-----------------------------------------------------------------------------------|
|--9--------------------------------------------------------------------------------|
|--7-------7----7-----7----7----7----7-----7----7----7----7-----7----7----7----7----|


A5
T
|------5------| |-------5-------| |-------5-------| |-------5-------|
S S S S S S S S S S S S S S S S S S S S
|-12p9--------------------9h==12p==9-17p12p==9----------------------9h==12--|
|------10------------10--------------------------10------------10-----------|
|-----------9------9----------------------------------9----9----------------|
|---------------11--------------------------------------11------------------|
|---------------------------------------------------------------------------|
|---------------------------------------------------------------------------|
|
| PM----------------------------------------------------------|
| E S S S S S S S S S S S S S S
|---------------------------------------------------------------------------|
|---------------------------------------------------------------------------|
|---------------------------------------------------------------------------|
|---------------------------------------------------------------------------|
|--7------------------------------------------------------------------------|
|--5------5---5----5----5---5----5----5----5---5----5----5---5----5---5-----|


G5
T
|-----5-----| |------5-------| |------5-------| |------5-------|
S S S S S S S S S S S S S S S S S S S S
|-10p7-----------------7h==10p==7-15p10p==7-------------------7h==10-|
|------8-----------8--------------------------8-----------8----------|
|----------7-----7--------------------------------7---7--------------|
|--------------9------------------------------------9----------------|
|--------------------------------------------------------------------|
|--------------------------------------------------------------------|
|
| PM-----------------------------------------------------|
| E S S S S S S S S S S S S S S
|--------------------------------------------------------------------|
|--------------------------------------------------------------------|
|--------------------------------------------------------------------|
|--------------------------------------------------------------------|
|--5-----------------------------------------------------------------|
|--3-----3---3---3---3---3----3----3----3---3---3---3---3---3---3----|


D5 A5
|-------5-------| |--------5--------| |------5------| |-------5-------|
S S S S S S S S S S S S S S S S S S S S
|-17p14----------------------14h==17p==14-12p9--------------------9h==12p==9---|
|-------15--------------15---------------------10------------10----------------|
|------------14------14-----------------------------9------9-------------------|
|-----------------16------------------------------------11---------------------|
|------------------------------------------------------------------------------|
|------------------------------------------------------------------------------|
|
| PM------------------------| PM---------------------|
| E S S S S S S E S S S S S S
|------------------------------------------------------------------------------|
|------------------------------------------------------------------------------|
|------------------------------------------------------------------------------|
|--7---------------------------------------------------------------------------|
|--5-------5----5-----5----5----5----5-----7-----------------------------------|
|------------------------------------------5------5---5----5----5---5----5-----|


B5
|---------------9---------------| |-------5--------| |-------5--------|
E E E E E E E E E S S S S S S S S S S
|--------------------------------------------------------------------------|
|--------------------------------------------------------------------------|
|--------------------------------------------------------------------------|
|-----------------------------------------------9---11-12-11---9-----------|
|----------7---9---10---------------9-10---12----------------------12---10-|
|-7-9-10----------------9---10---12----------------------------------------|
|
| PM-----------------------------------------------------------|
| E S S S S S S S S S S S S S S
|--------------------------------------------------------------------------|
|--------------------------------------------------------------------------|
|--------------------------------------------------------------------------|
|--------------------------------------------------------------------------|
|-9------------------------------------------------------------------------|
|-7------7---7---7----7---7----7----7----7----7---7-----7----7---7----7----|


A5
|----------------9-----------------| |--------5--------| |--------5--------|
E E E E E E E E E S S S S S S S S S S
|---------------------------------------------------------------------------------|
|---------------------------------------------------------------------------------|
|---------------------------------------------------11---12-14-12---11------------|
|-----------9---11---12----------------11-12---14------------------------14---12--|
|-9-10-12-----------------10---12---14--------------------------------------------|
|---------------------------------------------------------------------------------|
|
| PM----------------------------------------------------------------|
| E S S S S S S S S S S S S S S
|---------------------------------------------------------------------------------|
|---------------------------------------------------------------------------------|
|---------------------------------------------------------------------------------|
|---------------------------------------------------------------------------------|
|-7-------------------------------------------------------------------------------|
|-5-------5---5----5----5----5----5-----5----5----5----5-----5----5----5----5-----|


G5
|-----------------9-----------------| |--------5--------| |--------5--------|
E E E E E E E E E S S S S S S S S S S
|----------------------------------------------------------------------------------|
|----------------------------------------------------------------------------------|
|------------11---12---14----------------12-14---16--------------14---16---18---16-|
|-11-12-14------------------12---14---16--------------14---16-17-------------------|
|----------------------------------------------------------------------------------|
|----------------------------------------------------------------------------------|
|
| PM-----------------------------------------------------------------|
| E S S S S S S S S S S S S S S
|----------------------------------------------------------------------------------|
|----------------------------------------------------------------------------------|
|----------------------------------------------------------------------------------|
|----------------------------------------------------------------------------------|
|--5-------------------------------------------------------------------------------|
|--3-------3----3----3----3----3----3-----3----3----3----3-----3----3----3----3----|


D5 A5
|-------5-------| |--------5--------| |-------5-------| |--------5--------|
S S S S S S S S S S S S S S S S S S S S
|---------------------------------------------------------15-17-15------------------|
|----------------------------15---17---19-17-15-17---19--------------19---17---15---|
|-14-16-18---16---14-16-18----------------------------------------------------------|
|-----------------------------------------------------------------------------------|
|-----------------------------------------------------------------------------------|
|-----------------------------------------------------------------------------------|
|
| PM------------------------| PM------------------------|
| E S S S S S S E S S S S S S
|-----------------------------------------------------------------------------------|
|-----------------------------------------------------------------------------------|
|-----------------------------------------------------------------------------------|
|--7--------------------------------------------------------------------------------|
|--5-------5----5-----5----5----5----5-----7----------------------------------------|
|------------------------------------------5-------5----5-----5----5----5----5------|


B5
|--3--| |---3---| |---3---| |---3---| |--------5--------| |--------5--------|
S S S S S S S S S S S S S S S S S S S S S S
|-19p14----------------------------------14-15-17---15---14-------------------14---15-|
|-------15--------------------------15------------------------17-14-15---17-----------|
|----------16--------------------16---------------------------------------------------|
|-------------16--------------16------------------------------------------------------|
|------------------17p14h17-----------------------------------------------------------|
|-------------------------------------------------------------------------------------|
|
| PM-------------------------------------------------------------------|
| E S S S S S S S S S S S S S S
|-------------------------------------------------------------------------------------|
|-------------------------------------------------------------------------------------|
|-------------------------------------------------------------------------------------|
|-------------------------------------------------------------------------------------|
|--9----------------------------------------------------------------------------------|
|--7--------7----7-----7----7-----7----7-----7----7----7----7-----7----7----7----7----|


A5
|--3--| |---3---| |---3---| |---3---| |--------5--------| |--------5--------|
S S S S S S S S S S S S S S S S S S S S S S
|-17p12----------------------------------12-14-15---14---12-------------------12---14--|
|-------14--------------------------14------------------------15-12-14---15------------|
|----------14--------------------14----------------------------------------------------|
|-------------14--------------14-------------------------------------------------------|
|------------------16p12h16------------------------------------------------------------|
|--------------------------------------------------------------------------------------|
|
| PM-------------------------------------------------------------------|
| E S S S S S S S S S S S S S S
|--------------------------------------------------------------------------------------|
|--------------------------------------------------------------------------------------|
|--------------------------------------------------------------------------------------|
|--------------------------------------------------------------------------------------|
|--7-----------------------------------------------------------------------------------|
|--5--------5----5-----5----5-----5----5-----5----5----5----5-----5----5----5----5-----|


G5
|--3--| |---3---| |---3---| |---3---| |--------5--------| |--------5--------|
S S S S S S S S S S S S S S S S S S S S S S
|-15p10----------------------------------10-12-14---12---10-------------------10---12-|
|-------12--------------------------12------------------------14-10-12---14-----------|
|----------12--------------------12---------------------------------------------------|
|-------------12--------------12------------------------------------------------------|
|------------------14p10h14-----------------------------------------------------------|
|-------------------------------------------------------------------------------------|
|
| PM-------------------------------------------------------------------|
| E S S S S S S S S S S S S S S
|-------------------------------------------------------------------------------------|
|-------------------------------------------------------------------------------------|
|-------------------------------------------------------------------------------------|
|-------------------------------------------------------------------------------------|
|--5----------------------------------------------------------------------------------|
|--3--------3----3-----3----3-----3----3-----3----3----3----3-----3----3----3----3----|


D5 A5
|-3--| |---3---| |---3---| |--3---| |------5-------| |------5-------|
S S S S S S S S S S S S S S S S S S S S S S
|-14p9---------------------------------9-10-12-10---9--------------------------|
|------10-------------------------10--------------------12p10p8----------------|
|---------11-------------------11---------------------------------11p==9p==8---|
|------------11-------------11-------------------------------------------------|
|-----------------12p9h12------------------------------------------------------|
|------------------------------------------------------------------------------|
|
| PM------------------------| PM---------------------|
| E S S S S S S E S S S S S S
|------------------------------------------------------------------------------|
|------------------------------------------------------------------------------|
|------------------------------------------------------------------------------|
|--7---------------------------------------------------------------------------|
|--5-------5----5----5----5-----5----5----7------------------------------------|
|-----------------------------------------5-------5---5-----5---5----5---5-----|


Pre-Chorus
N.C.(F5)
~~~~~~~~~~~~~~~~~~~~~~~~~~~~~~~~~~~~~~~~~~
W +W
||---------------------|----------------------|
||o--------------------|----------------------|
||--11-----------------|-(11)-----------------|
||---------------------|----------------------|
||o--------------------|----------------------|
||---------------------|----------------------|
|
| PM--| PM| PM--| PM|
| E S S E E E E E E E S S E E E E E E
||---------------------|----------------------|
||o--------------------|----------------------|
||---------------------|----------------------|
||---4-------4-----4s5-|---4--------4-----4s5-|
||o--------------------|----------------------|
||-----2-2-2---2-2-----|------2-2-2---2-2-----|


B5
~~~~~~
+W
|----------------------------------|
|----------------------------------|
|-(11)-----------------------------|
|----------------------------------|
|----------------------------------|
|----------------------------------|
|
| PM------------------------|
| E S S S S S S S S S S S S S S
|----------------------------------|
|----------------------------------|
|----------------------------------|
|---4------------------------------|
|---2--2-2-2-2-2-2-2-2-2-2-2-2-2-2-|
|----------------------------------|


E5/B G5/D F#5/C#
Gtrs III, IV
W H H W +W
|----------|------------||----------|--------|
|----------|-----------o||----------|--------|
|-4--------|-7----6-----||-6--------|-(6)----|
|-2--------|-5----4-----||-4--------|-(4)----|
|-2--------|-5----4----o||-4--------|-(4)----|
|----------|------------||----------|--------|


D.S.S. al Dbl. Coda
+W +W +W
|------------|------------|---------||
|------------|------------|---------||
|-(6)--------|-(6)--------|-(6)-----||
|-(4)--------|-(4)--------|-(4)-----||
|-(4)--------|-(4)--------|-(4)-----||
|------------|------------|---------||


Outro
&&
B5
Gtr III
~~~~~~~~~~
E S S E S S E S S E S S H Q Q
||--------------------------|-------------|
||o-------------------------|-------------|
||--4-x-x-4-x-x-4-x-x-4-x-x-|-11----9--7--|
||--4-x-x-4-x-x-4-x-x-4-x-x-|-------------|
||o-2-x-x-2-x-x-2-x-x-2-x-x-|-------------|
||--------------------------|-------------|
|
| Gtr IV
| ~~~~~~~~~~
| E S S E S S E S S E S S H Q Q
||--------------------------|-------------|
||o-------------------------|-------------|
||--4-x-x-4-x-x-4-x-x-4-x-x-|--7----6--4--|
||--4-x-x-4-x-x-4-x-x-4-x-x-|-------------|
||o-2-x-x-2-x-x-2-x-x-2-x-x-|-------------|
||--------------------------|-------------|


A5
~~~~~~~~~~~
E S S E S S E S S E S S H Q Q
|-------------------------|----------------|
|-------------------------|----------------|
|-2-x-x-2-x-x-2-x-x-2-x-x-|-11----9--11----|
|-2-x-x-2-x-x-2-x-x-2-x-x-|----------------|
|-0-x-x-0-x-x-0-x-x-0-x-x-|----------------|
|-------------------------|----------------|
|
| ~~~~~~~~~~~
| E S S E S S E S S E S S H Q Q
|-------------------------|----------------|
|-------------------------|----------------|
|-2-x-x-2-x-x-2-x-x-2-x-x-|--7----6---7----|
|-2-x-x-2-x-x-2-x-x-2-x-x-|----------------|
|-0-x-x-0-x-x-0-x-x-0-x-x-|----------------|
|-------------------------|----------------|


E5 D5 A5
Gtrs III, IV
W +W W W
|----------|------------|----------|-------||
|----------|------------|----------|------o||
|----------|------------|-7--------|-2-----||
|-2--------|-(2)--------|-7--------|-2-----||
|-2--------|-(2)--------|-5--------|-0----o||
|-0--------|-(0)--------|----------|-------||


G5
Gtr III
W +W +W
|----------|------------|--------|
|----------|------------|--------|
|----------|------------|--------|
|-5--------|-(5)--------|-(5)----|
|-2--------|-(2)--------|-(2)----|
|-3--------|-(3)--------|-(3)----|
|
| Gtr IV
| W +W +W
|----------|------------|--------|
|----------|------------|--------|
|----------|------------|--------|
|----------|------------|--------|
|-5--------|-(5)--------|-(5)----|
|-3--------|-(3)--------|-(3)----|


N.C. B5
S S S S S S S S S S S S S S S S E E H. W
|---------------------------------|-------------|------*|
|---------------------------------|-------------|------*|
|---------------------------------|-4-----------|------*|
|---------------------------------|-4-----------|------*|
|-5-5-5-5-4-4-4-4-2-2-2-2-0-0-0-0-|-2-----------|------*|
|---------------------------------|-------------|------*|
|
| S S S S S S S S S S S S S S S S E E H. W
|---------------------------------|-------------|------*|
|---------------------------------|-------------|------*|
|---------------------------------|-4-----------|------*|
|-4-4-4-4-2-2-2-2-0-0-0-0---------|-4-----------|------*|
|-------------------------4-4-4-4-|-2-----------|------*|
|---------------------------------|-------------|------*|



Duration Legend
---------------
W - whole; H - half; Q - quarter; E - 8th; S - 16th; T - 32nd; X - 64th; a - acciaccatura
+ - note tied to previous; . - note dotted; .. - note double dotted
Uncapitalized letters represent notes that are staccato (1/2 duration)
Irregular groupings are notated above the duration line
Duration letters will always appear directly above the note/fret number it represents the
duration for. Duration letters with no fret number below them represent rests. Multi-
bar rests are notated in the form Wxn, where n is the number of bars to rest for. Low
melody durations appear below the staff

Tablature Legend
----------------
h - hammer-on
p - pull-off
b - bend
pb - pre-bend
r - bend release (if no number after the r, then release immediately)
/\ - slide into or out of (from/to "nowhere")
s - legato slide
S - shift slide
- natural harmonic
[n] - artificial harmonic
n(n) - tapped harmonic
~ - vibrato
tr - trill
T - tap
TP - trem. picking
PM - palm muting
\n/ - tremolo bar dip; n = amount to dip
\n - tremolo bar down
n/ - tremolo bar up
/n\ - tremolo bar inverted dip
= - hold bend; also acts as connecting device for hammers/pulls
- volume swell (louder/softer)
x - on rhythm slash represents muted slash
o - on rhythm slash represents single note slash

Misc Legend
-----------
| - bar
|| - double bar
||o - repeat start
o|| - repeat end
*| - double bar (ending)
: - bar (freetime)
$ - Segno
& - Coda
Tempo markers - = BPM(8/16=s8/s16), where s8 = swing 8ths, s16 = swing 16ths



Like us on Facebook.....
-> Loading Time :0.0194 sec