Meaningless Movements Tabs & Lyrics by Sepultura

Meaningless Movements

guitar tabs lyrics

Sepultura

Album : Arise thrash metal PlayStop




MEANINGLESS MOVEMENTS
As recorded by Sepultura
(From the 1991 Album ARISE)

Transcribed by Jeff Jacobson, Paul Pappas, and Steve Gorenberg


Words by Max Cavalera and Andreas Kisser Music by Sepultura

E5
0 2 x x x x

F#5
2 4 x x x x

F5
1 3 x x x x

G#5
4 6 x x x x

D#5
x 6 8 x x x

D5
x 5 7 x x x

G5
3 5 x x x x

F5VIII
x 8 10 x x x

C#5
x 4 6 x x x

Gtr I (E A D G B E) - 'Rhythm 1'
Gtr II (E A D G B E) - 'Rhythm 2'
Gtr III (E A D G B E) - 'Untitled'
Gtr IV (E A D G B E) - 'Untitled'
Gtr V (E A D G B E) - 'Lead Guitar'

Intro
Moderate Rock Q=124
N.C.
4/4
Gtrs I, II
PM----| PM----| PM----| PM|
S S S S E S S S S E Q S S S S E S S S S E Q
||-------------------------|--------------------------||
||o------------------------|-------------------------o||
||-------------------------|--------------------------||
||-------------------------|--------------------------||
||o---------1---------1----|---------1-----1-2-1-----o||
||--0-0-0-0---0-0-0-0------|-0-0-0-0---0-0------------||


Bb5 B5Bb5
PM----| PM----| PM----| PM| PM----| PM----|
S S S S E S S S S E Q S S S S E S S S S E Q S S S S E S S S S E Q
|------------------------|------------------------|-------------------------|
|------------------------|------------------------|-------------------------|
|------------------------|------------------------|-------------------------|
|---------3---------3----|---------3-----3-4-3----|---------3---------3-----|
|---------1---------1----|---------1-----1-2-1----|---------1---------1-----|
|-0-0-0-0---0-0-0-0------|-0-0-0-0---0-0----------|-0-0-0-0---0-0-0-0-------|


B5Bb5 E5
Gtr II
W W
|
/

Gtr I
PM----| PM| PM-------------------------------
|-3-| |-3-| |-3-| |-3-|
S S S S E S S S S E Q S S S E S S S E S S S E S S S E
|-------------------------|---------------------------------|
|-------------------------|---------------------------------|
|-------------------------|---------------------------------|
|---------3-----3-4-3-----|---------------------------------|
|---------1-----1-2-1sx\--|-2-2-2-2-2-2-2-2-2-2-2-2-2-2-2-2-|
|-0-0-0-0---0-0-----------|-0-0-0-0-0-0-0-0-0-0-0-0-0-0-0-0-|


+W
|
/

--------------------------------|
|-3-| |-3-| |-3-| |-3-|
S S S E S S S E S S S E S S S E
|-----------------------------------||
|-----------------------------------||
|-----------------------------------||
|-----------------------------------||
|--2-2-2-2-2-2-2-2-2-2-2-2-2-2-2-2--||
|--0-0-0-0-0-0-0-0-0-0-0-0-0-0-0-0--||


E5 Bb5
Gtrs I, II
PM----------------| PM|
|-3-| |-3-|
S S S E S S S E S S E S S E 4x
||-------------------------------||-|
||o-----------------------------o||-|
||-------------------------------||-|
||----------------------3-----3--||-|
||o-2-2-2-2-2-2-2-2-----1-----1-o||-|
||--0-0-0-0-0-0-0-0-0-0---0-0----||-|


B5Bb5
PM----| PM----| PM--------------| PM| PM----|
S S S S E S S S S E S S S S S S S S E S S S S E S S S S
||------------------------------|-------------------------------||
||o-----------------------------|------------------------------o||
||------------------------------|-------------------------------||
||----------3---------3---------|---------3-----3-4-3-----------||
||o---------1---------1---------|---------1-----1-2-1----------o||
||--0-0-0-0---0-0-0-0---0-0-0-0-|-0-0-0-0---0-0-------0-0-0-0---||


1st Verse
Bb5
PM----| PM----| PM-------
S S S S E S S S S E S S S S
|-----------------------------|
|-----------------------------|
|-----------------------------|
|---------3---------3---------|
|---------1---------1---------|
|-0-0-0-0---0-0-0-0---0-0-0-0-|


B5Bb5
-------| PM| PM--------------| PM----| PM----|
S S S S E S S S S E S S S S S S S S E S S S S E S S S S
|-----------------------------|-----------------------------|
|-----------------------------|-----------------------------|
|-----------------------------|-----------------------------|
|---------3-----3-4-3---------|---------3---------3---------|
|---------1-----1-2-1---------|---------1---------1---------|
|-0-0-0-0---0-0-------0-0-0-0-|-0-0-0-0---0-0-0-0---0-0-0-0-|


B5Bb5 E5 F#E5 F#5 F5 G#5
PM----| PM| PM----|
S S S S E S S S S E S S S S Q S S E Q S S E Q S S E Q Q
|-----------------------------||--------------------|-----------------||
|-----------------------------||o-------------------|----------------o||
|-----------------------------||--------------------|-----------------||
|---------3-----3-4-3---------||--------------------|-----------------||
|---------1-----1-2-1---------||o-2------4-2------4-|-3------3S6--6--o||
|-0-0-0-0---0-0-------0-0-0-0-||--0--x-x-2-0--x-x-2-|-1--x-x-1S4--4---||


E5 F#5 E5 F#5 F5 G#5
Gtr III
Q. E a Q Q a Q. E Q Q
|----------------------------|------------------------|
|----------------------------|------------------------|
|-/13-------14-14s16--16-----|-16s14-------16-17--17S=|
|----------------------------|------------------------|
|-/11-------12-12s14--14-----|-14s12-------14-15--15S=|
|----------------------------|------------------------|
|
| Gtr IV
| Q. E a Q Q a Q. E Q Q
|----------------------------|------------------------|
|----------------------------|------------------------|
|--/9-------11-11s13--13-----|-13s10-------13-14--14S=|
|----------------------------|------------------------|
|--/7--------9--9s11--11-----|-11s=8-------11-12--12S=|
|----------------------------|------------------------|
|
| Gtrs I, II
| Q S S E Q S S E Q S S E Q Q
|----------------------------|------------------------|
|----------------------------|------------------------|
|----------------------------|------------------------|
|----------------------------|------------------------|
|---2--------4-----2-------4-|-----3--------3S=6---6--|
|---0---x-x--2-----0---x-x-2-|-----1---x-x--1S=4---4--|


E5 F#5 E5 F#5 F5 G#5
Q. E a Q Q a Q. E Q Q
|---------------------------|---------------------------||
|---------------------------|---------------------------||
|-13-------14-14s16--16-----|-16s14-------16-17--17\----||
|---------------------------|---------------------------||
|-11-------12-12s14--14-----|-14s12-------14-15--15\----||
|---------------------------|---------------------------||
|
| Q. E a Q Q a Q. E Q Q
|---------------------------|---------------------------||
|---------------------------|---------------------------||
|--9-------11-11s13--13-----|-13s10-------13-14--14\----||
|---------------------------|---------------------------||
|--7--------9--9s11--11-----|-11s=8-------11-12--12\----||
|---------------------------|---------------------------||
|
| Q S S E Q S S E Q S S E Q Q
|---------------------------|---------------------------||
|---------------------------|---------------------------||
|---------------------------|---------------------------||
|---------------------------|---------------------------||
|--2--------4-----2-------4-|-----3--------3S=6---6-----||
|--0---x-x--2-----0---x-x-2-|-----1---x-x--1S=4---4-----||


Chorus
Gtrs I, II
PM--------| PM--------| PM| PM| PM--------|
S S S S S S S S S S S S S S S S S S S S S S S S S S S S S S S S
||----------------------------------|-------------------------------------||
||o---------------------------------|------------------------------------o||
||--7s9-------------7s9-------------|-7s9-----9s10-----9s10---------------||
||----------------------------------|-------------------------------------||
||o-5s7-------------5s7-------------|-5s7-----7s=8-----7s=8--------------o||
||------0-0-0-0-0-0-----0-0-0-0-0-0-|-----0-0------0-0------0-0-0-0-0-0---||


E5 F#E5 F#5 F5 G#5 E5 F#E5 F#5 F5 G#5
Q S S E Q S E. Q S S E Q Q Q S S E Q S E. Q S S E Q Q
|------------------|----------------|------------------|----------------|
|------------------|----------------|------------------|----------------|
|------------------|----------------|------------------|----------------|
|------------------|----------------|------------------|----------------|
|-2------4-2----4--|-3------3S6--6--|-2------4-2----4--|-3------3S6--6--|
|-0--x-x-2-0--x-2--|-1--x-x-1S4--4--|-0--x-x-2-0--x-2--|-1--x-x-1S4--4--|


2nd Verse
N.C. Bb5 N.C. Bb5 B5BbN.C.
PM----| PM----| PM--------------| PM| PM----|
S S S S E S S S S E S S S S S S S S E S S S S E S S S S 4x
||------------------------------|------------------------------||
||o-----------------------------|-----------------------------o||
||------------------------------|------------------------------||
||----------3---------3---------|---------3-----3-4-3----------||
||o---------1---------1---------|---------1-----1-2-1---------o||
||--0-0-0-0---0-0-0-0---0-0-0-0-|-0-0-0-0---0-0-------0-0-0-0--||


D#5D5 N.C. D#5D5 N.C.
2/4 4/4
PM----------------------------|
|----6----| |----6----|
Q Q S S S S S S S S S S S S Q Q S S S S S S S S S S S S S S S S
|-------------------------------|-------|---------------------------------||
|-------------------------------|-------|---------------------------------||
|-------------------------------|-------|---------------------------------||
|-8--7--------------------------|-8--7--|---------------------------------||
|-6--5--------------------------|-6--5--|---------------------------------||
|-------0-0-0-0-0-0-0-0-0-0-0-0-|-------|-3-3-3-3-3-3-3-3-3-3-3-3-3-3-3-3-||


G5 G#5 G5 G#5
Gtr II
H.. E S E. +Q +Q. E
| | | | | | |
/ / / / / / /

Gtr I
PM--| PM--| PM--| PM| PM--| PM--|
S S S S S S S S S S S S S S E S S S S S S S S S S S S S S E
|---------------------------------|-----------------------------------|
|---------------------------------|-----------------------------------|
|---------------------------------|-----------------------------------|
|-5---------5-------5-------5-----|-----------5--------5--------5-----|
|-------------------------------6-|-6s5-----------------------------6-|
|-----3-3-3---3-3-3---3-3-3---3-4-|-4s3--3-3----3-3-3-----3-3-3---3-4-|


G5 G#5
S E. +Q +Q. E
| | | | |
/ / / / /

PM| PM--| PM--|
S S S S S S S S S S S S S S E
|-----------------------------------|
|-----------------------------------|
|-----------------------------------|
|-----------5--------5--------5-----|
|-6s5-----------------------------6-|
|-4s3--3-3----3-3-3-----3-3-3---3-4-|


G5 G#5
S E. +Q +Q. E
| | | | |
/ / / / /

PM| PM--| PM--|
S S S S S S S S S S S S S S E
|-----------------------------------|
|-----------------------------------|
|-----------------------------------|
|-----------5--------5--------5-----|
|-6s5-----------------------------6-|
|-4s3--3-3----3-3-3-----3-3-3---3-4-|


F#5 G5 F#5 G5
H.. E S E. +Q +Q. E
| | | | | | |
/ / / / / / /

PM--| PM--------------| PM| PM----------------|
S S S S S S S S S S S S S S E S S S S S S S S S S S S S S E
|---------------------------------|-----------------------------------|
|---------------------------------|-----------------------------------|
|---------------------------------|-----------------------------------|
|-----------4---------------------|-----------4-----------------------|
|-4-----------------4-------3---5-|-5s4----------------4--------3---5-|
|-2---2-2-2---2-2-2---2-2-2---2-3-|-3s2--2-2----2-2-2-----2-2-2---2-3-|


F#5 G5
S E. +Q +Q. E
| | | | |
/ / / / /

PM| PM----------------|
S S S S S S S S S S S S S S E
|-----------------------------------|
|-----------------------------------|
|-----------------------------------|
|-----------4-----------------------|
|-5s4----------------4--------3---5-|
|-3s2--2-2----2-2-2-----2-2-2---2-3-|


F#5 G5 G#5
S E. +Q +Q. E H.. E
| | | | | | |
/ / / / / / /

PM| PM----------------| PM--| PM--| PM--|
S S S S S S S S S S S S S S E S S S S S S S S S S S S S S E
|-----------------------------------|---------------------------------|
|-----------------------------------|---------------------------------|
|-----------------------------------|---------------------------------|
|-----------4-----------------------|-----------5-------5-------5-----|
|-5s4----------------4--------3---4-|-5-----------------------------6-|
|-3s2--2-2----2-2-2-----2-2-2---2-2-|-3---3-3-3---3-3-3---3-3-3---3-4-|


G5 G#5
S E. +Q +Q. E
| | | | |
/ / / / /

PM| PM--| PM--|
S S S S S S S S S S S S S S E
|-----------------------------------|
|-----------------------------------|
|-----------------------------------|
|-----------5--------5--------5-----|
|-6s5-----------------------------6-|
|-4s3--3-3----3-3-3-----3-3-3---3-4-|


G5 G#5 G5 G#5
S E. +Q +Q. E S E. +Q +Q. E
| | | | | | | | | |
/ / / / / / / / / /

PM| PM--| PM--| PM| PM--| PM--|
S S S S S S S S S S S S S S E S S S S S S S S S S S S S S E
|-----------------------------------|-----------------------------------|
|-----------------------------------|-----------------------------------|
|-----------------------------------|-----------------------------------|
|-----------5--------5--------5-----|-----------5--------5--------5-----|
|-6s5-----------------------------6-|-6s5-----------------------------6-|
|-4s3--3-3----3-3-3-----3-3-3---3-4-|-4s3--3-3----3-3-3-----3-3-3---3-4-|


N.C.
Gtrs I, II
PM------------------------|
S S S S S S S S S S S S S S E
|--------------------------------||
|--------------------------------||
|--------------------------------||
|--------------------------------||
|--------------------------------||
|-3-3-3-3-3-3-3-3-3-3-3-3-3-3-x\-||


Bridge
C#5 G#G5 C#5
PM------------------------| PM--------------------|
S S S S S S S S S S S S S S E S S S S S S S S S S S S S S E
|-------------------------------|-------------------------------|
|-------------------------------|-------------------------------|
|-------------------------------|-------------------------------|
|-----------------------------6-|-----------------------------6-|
|-----------------------------4-|-6s5-------------------------4-|
|-3-3-3-3-3-3-3-3-3-3-3-3-3-3---|-4s3-3-3-3-3-3-3-3-3-3-3-3-3---|


G#G5 C#5 G#G5 C#5
W W
PM--------------------| PM--------------------|
S S S S S S S S S S S S S S E S S S S S S S S S S S S S S E
|-------------------------------|-------------------------------|
|-------------------------------|-------------------------------|
|-------------------------------|-------------------------------|
|-----------------------------6-|-----------------------------6-|
|-6s5-------------------------4-|-6s5-------------------------4-|
|-4s3-3-3-3-3-3-3-3-3-3-3-3-3---|-4s3-3-3-3-3-3-3-3-3-3-3-3-3---|


F#5 G5
Gtr II
H.. E
| |
/ /

Gtr I
PM--| PM--------------|
S S S S S S S S S S S S S S E
|---------------------------------|
|---------------------------------|
|---------------------------------|
|-----------4---------------------|
|-4-----------------4-------3---5-|
|-2---2-2-2---2-2-2---2-2-2---2-3-|


F#5 G5
S E. +Q +Q. E
| | | | |
/ / / / /

PM| PM----------------|
S S S S S S S S S S S S S S E
|-----------------------------------|
|-----------------------------------|
|-----------------------------------|
|-----------4-----------------------|
|-5s4----------------4--------3---5-|
|-3s2--2-2----2-2-2-----2-2-2---2-3-|


F#5 G5 F#5
S E. +Q +Q. E S E. +Q +Q. E
| | | | | | | | | |
/ / / / / / / / / /

PM| PM----------------| PM| PM----------------|
S S S S S S S S S S S S S S E S S S S S S S S S S S S S S E
|-----------------------------------|-----------------------------------|
|-----------------------------------|-----------------------------------|
|-----------------------------------|-----------------------------------|
|-----------4-----------------------|-----------4-----------------------|
|-5s4----------------4--------3---5-|-5s4----------------4--------3---4-|
|-3s2--2-2----2-2-2-----2-2-2---2-3-|-3s2--2-2----2-2-2-----2-2-2---2-2-|


N.C. C#5
Gtrs I, II
PM------------------------|
S S S S S S S S S S S S S S E
|-------------------------------|
|-------------------------------|
|-------------------------------|
|-----------------------------6-|
|-----------------------------4-|
|-3-3-3-3-3-3-3-3-3-3-3-3-3-3---|


G#G5 C#5 G#G5 C#5
PM--------------------| PM--------------------|
S S S S S S S S S S S S S S E S S S S S S S S S S S S S S E
|-------------------------------|-------------------------------|
|-------------------------------|-------------------------------|
|-------------------------------|-------------------------------|
|-----------------------------6-|-----------------------------6-|
|-6s5-------------------------4-|-6s5-------------------------4-|
|-4s3-3-3-3-3-3-3-3-3-3-3-3-3---|-4s3-3-3-3-3-3-3-3-3-3-3-3-3---|


G#G5 C#5
PM--------------------|
S S S S S S S S S S S S S S E
|-------------------------------||
|-------------------------------||
|-------------------------------||
|-----------------------------6-||
|-6s5-------------------------4-||
|-4s3-3-3-3-3-3-3-3-3-3-3-3-3---||


N.C.
PM| PM| PM--| PM| PM| PM--|
S S S S S S S S S S E E E S S S S S S S S S S E E E
|---------------------------|----------------------------|
|---------------------------|----------------------------|
|-5s4-----8s7-----9s8-------|-5s4-----8s7-----9s8--------|
|---------------------------|----------------------------|
|-3s2-----6s5-----7s6-------|-3s2-----6s5-----7s6--------|
|-----0-0-----0-0-----0-0-0-|-----0-0-----0-0-----0-0-0--|


2/4
PM| PM| PM--| PM| PM| PM------------|
S S S S S S S S S S E E E S S S S S S S S S S E E E E E E E
|---------------------------|---------------------------|---------||
|---------------------------|---------------------------|---------||
|-5s4-----8s7-----9s8-------|-5s4-----8s7-----9s8-------|---------||
|---------------------------|---------------------------|---------||
|-3s2-----6s5-----7s6-------|-3s2-----6s5-----7s6-------|---------||
|-----0-0-----0-0-----0-0-0-|-----0-0-----0-0-----0-0-0-|-0-0-0-0-||


D#5D5 N.C. D#5 D5 E5 D#5 D5 E5
4/4
Gtr II
Q Q E E E E W W
| | | | | |
/ / o / / /

Gtr I Gtrs I, II
PM----| PM| PM| PM| PM|
Q Q E E E E 4x Q Q S S E S S E Q Q S S E S S E
||-----------------||-||---------------------|---------------------||
||o---------------o||-||o--------------------|--------------------o||
||-----------------||-||---------------------|---------------------||
||-----------------||-||--/8--7--------------|-/8--7---------------||
||o-6--5----------o||-||o-/6--5------2-----2-|-/6--5------2-----2-o||
||--6--5--0-0-0-0--||-||---------0-0-0-0-0-0-|--------0-0-0-0-0-0--||


Guitar Solo 1
N.C. D#5 N.C. D#5
Gtr V
Q. E +E Q E H +E +E E. S
|---------------------------------------|-----------------------------------------|
|-22-------------------------22---------|--22----------------(22)-----------------|
|-20------------20---(20)---(20)-----20-|-(20)---------------(20)---(20)-x\-------|
|---------------------------------------|---------------------------------------xs|
|---------------------------------------|-----------------------------------------|
|---------------------------------------|-----------------------------------------|
|
| Gtrs I, II
| PM---------------------| PM| PM--------------------| PM-|
| S S S S S S S S S S E S S E S S S S S S S S S S E S S E
|---------------------------------------|-----------------------------------------|
|---------------------------------------|-----------------------------------------|
|---------------------------------------|-----------------------------------------|
|---------------------------------------|-----------------------------------------|
|-----------------------------6-------6-|-----------------------------6-------6---|
|--0--0-0-0-0-0--0-0---0--0---6--0-0--6-|---0--0-0-0-0-0-0-0---0--0---6--0--0-6---|


N.C. D#5
Q S S E +E S S E E
|-------------------------------------------|
|-------------------------------------------|
|-------------------------------------------|
|-12-------12-12-12---(12)---12-12-12---12--|
|-------------------------------------------|
|-------------------------------------------|
|
| PM----------------------| PM|
| S S S S S S S S S S E S S E
|-------------------------------------------|
|-------------------------------------------|
|-------------------------------------------|
|-------------------------------------------|
|-----------------------------6----------6--|
|--0-0-0-0--0--0--0-0---0--0--6-----0-0--6--|


N.C. D#5 N.C. D#5
E S S E E E Q E Q. a E +E Q E
|-------------------------------------|------------------------------------------|
|-------------------------------------|---------------22--------------22---------|
|-----------------------------------xS|=20---------------20---(20)---(20)-----20-|
|-12---12-12-12---12---12---12\-------|------------------------------------------|
|-------------------------------------|------------------------------------------|
|-------------------------------------|------------------------------------------|
|
| PM---------------------| PM| PM------------------------| PM|
| S S S S S S S S S S E S S E S S S S S S S S S S E S S E
|-------------------------------------|------------------------------------------|
|-------------------------------------|------------------------------------------|
|-------------------------------------|------------------------------------------|
|-------------------------------------|------------------------------------------|
|----------------------------6------6-|--------------------------------6-------6-|
|--0-0--0--0--0-0--0-0--0-0--6--0-0-6-|--0--0-0-0-0-0-----0-0---0--0---6--0-0--6-|


N.C. D#5
H +E. S E. S
|--------------------------------------------|
|--22----------------(22)--------------------|
|-(20)---------------(20)-----(20)-x\--------|
|-----------------------------------------xs=|
|--------------------------------------------|
|--------------------------------------------|
|
| PM--------------------| PM-|
| S S S S S S S S S S E S S E
|--------------------------------------------|
|--------------------------------------------|
|--------------------------------------------|
|--------------------------------------------|
|---------------------------6-----------6----|
|---0--0-0-0-0-0-0-0---0--0-6------0--0-6----|


N.C. D#5
E S S S S S S S S S S S S S S
|------------------------------------------------|
|------------------------------------------------|
|------------------------------------------------|
|-12---12-12-12-12-12-12-12-12-12-12-12-12-12-12-|
|------------------------------------------------|
|------------------------------------------------|
|
| PM-----------------------| PM|
| S S S S S S S S S S E S S E
|------------------------------------------------|
|------------------------------------------------|
|------------------------------------------------|
|------------------------------------------------|
|-------------------------------6-----------6----|
|--0-0--0--0--0--0--0--0--0--0--6-----0--0--6----|


N.C. D#5 N.C. E5 F5VIII
S S S S S S S S S S Q. W
|-----------------------------------------||----------------------|
|-----------------------------------------||----------------------|
|-----------------------------------------||----------------------|
|-12-12-12-12-12-12-12-12-12-12-12\-------||----------------------|
|-----------------------------------------||----------------------|
|-----------------------------------------||----------------------|
|
| PM------------------------| PM| PM--| PM--|
| S S S S S S S S S S E S S E S E S Q S E S Q
|-----------------------------------------||----------------------|
|-----------------------------------------||----------------------|
|-----------------------------------------||----------------------|
|-----------------------------------------||----------------10----|
|--------------------------------6------6-||-------2---------8----|
|--0--0--0--0--0--0--0--0--0--0--6--0-0-6-||-0-0-0-0--0-0-0-------|


N.C. C#5 D5 N.C. E5 N.C. F5VIIIN.C. C#5 D5
Gtr I
PM--| PM--------| PM--------| PM--------|
|----6----| |----6----| |----6----|
S E S Q Q Q S S S S S S Q S S S S S S Q S S S S S S Q Q Q
|----------------|--------------------------------|----------------------||
|----------------|--------------------------------|----------------------||
|----------------|--------------------------------|----------------------||
|----------------|----------------------------10--|----------------------||
|-------4--4--5--|-------------2---------------8--|-------------4--4--5--||
|-0-0-0-4--4--5--|-0-0-0-0-0-0-0--0-0-0-0-0-0-----|-0-0-0-0-0-0-4--4--5--||
|
| Gtr II
| PM--| PM--------| PM--------| PM--------|
| |----6----| |----6----| |----6----|
| S E S Q Q Q S S S S S S Q S S S S S S Q S S S S S S Q Q Q
|----------------|--------------------------------|----------------------||
|----------------|--------------------------------|----------------------||
|----------------|--------------------------------|----------------------||
|-------6--6--7--|----------------------------10--|-------------6--6--7--||
|-------4--4--5--|-------------2---------------8--|-------------4--4--5--||
|-0-0-0----------|-0-0-0-0-0-0-0--0-0-0-0-0-0-----|-0-0-0-0-0-0----------||


Guitar Solo 2
N.C. D#5
Gtr V
|--3--| |--3--|
S S S S S S S S S S S S S S S S S S
|-7h8p==7---------11------7h8p==7---------11------|
|---------10---10----10-----------10---10----10---|
|------------8----------8------------8----------8-|
|-------------------------------------------------|
|-------------------------------------------------|
|-------------------------------------------------|
|
| Gtrs I, II
| PM--------------------------| PM|
| S S S S S S S S S S E S S E
|-------------------------------------------------|
|-------------------------------------------------|
|-------------------------------------------------|
|-------------------------------------------------|
|----------------------------------6----------6---|
|-0---0----0-0--0--0--0-0-0---0----6----0--0--6---|


N.C. D#5
PM PM
|--3--|
S S S S S S S S S S S S S E E
|-7h8p==7---------------------------------|
|---------10---10-10-----10---------------|
|------------8-------8------8-------------|
|----------------------7------7s1-1---1/--|
|-----------------------------------------|
|-----------------------------------------|
|
| PM------------------------| PM|
| S S S S S S S S S S E S S E
|-----------------------------------------|
|-----------------------------------------|
|-----------------------------------------|
|-----------------------------------------|
|-----------------------------6-------6---|
|-0---0----0-0--0--0-0-0--0-0-6---0-0-6---|


N.C. D#5
|---3---| |--------6---------| |--3--| |---3---|
S S S S S S S S S S S T S T S S S S S S T T T T
|-12-13---12----12-13p12------12-13p==12----13---13p12----12-13p12------13h16p13p12-|
|------------15------------15------------15------------15------------15-------------|
|-----------------------------------------------------------------------------------|
|-----------------------------------------------------------------------------------|
|-----------------------------------------------------------------------------------|
|-----------------------------------------------------------------------------------|
|
| PM------------------------------------------| PM---|
| S S S S S S S S S S E S S E
|-----------------------------------------------------------------------------------|
|-----------------------------------------------------------------------------------|
|-----------------------------------------------------------------------------------|
|-----------------------------------------------------------------------------------|
|----------------------------------------------------6-------------------6----------|
|--0----0-----0--0--0----0-----0----0-----0----0-----6--------0----0-----6----------|


N.C. D#5
S S T T T T T T T T S S T T S S +S +S S E
|----12-13p12----13h16p13p12s10----------------------------------------|
|-15----------15----------------12-13-12p10----------------------------|
|-------------------------------------------13-13b14==(13)r(13)-10-10S=|
|----------------------------------------------------------------------|
|----------------------------------------------------------------------|
|----------------------------------------------------------------------|
|
| PM---------------------------------------| PM-|
| S S S S S S S S S S E S S E
|----------------------------------------------------------------------|
|----------------------------------------------------------------------|
|----------------------------------------------------------------------|
|----------------------------------------------------------------------|
|-----------------------------------------------6-------------------6--|
|--0--0--0-----0-----0-----0-----0--0--0-----0--6------------0---0--6--|


N.C. D#5
E S S +S S S S E S S +S S S S
|----------------------------------------------------|
|------22-22-(22)-22----22----------15-(15)-15-15----|
|-20---20------------20----20\---13---------13-13-13-|
|----------------------------------------------------|
|----------------------------------------------------|
|----------------------------------------------------|
|
| PM--------------------------| PM-|
| S S S S S S S S S S E S S E
|----------------------------------------------------|
|----------------------------------------------------|
|----------------------------------------------------|
|----------------------------------------------------|
|---------------------------------6-------------6----|
|--0-0--0--0---0---0--0--0--0--0--6------0---0--6----|


N.C. D#5
~~~~
E S S +E E +E +Q a E
|-------------------------------------------------|
|--15\------10-(10)---10---(10)---(10)------------|
|-(13)\---8------------8----(8)----(8)-----(8)s6--|
|-------------------------------------------------|
|-------------------------------------------------|
|-------------------------------------------------|
|
| PM--------------------------| PM|
| S S S S S S S S S S E S S E
|-------------------------------------------------|
|-------------------------------------------------|
|-------------------------------------------------|
|-------------------------------------------------|
|-----------------------------------6----------6--|
|---0---0-0--0---0--0--0-0---0--0---6--0-0-----6--|


N.C. D#5
\3_______________________\6__________________/3.5___________
T T S +T T S T S. T S T S T T +T T S +S S E
|------------------------------------------------------------|
|------------------------------------------------------------|
|-6---9-6-(6)-9-6-9-6----9-6-----9-6-9-6-(6)-9-6-----(6)p0-0h|
|------------------------------------------------------------|
|------------------------------------------------------------|
|------------------------------------------------------------|
|
| PM---------------------------------| PM-|
| S S S S S S S S S S E S S E
|------------------------------------------------------------|
|------------------------------------------------------------|
|------------------------------------------------------------|
|------------------------------------------------------------|
|-----------------------------------------6----------------6-|
|-0-----0--0----0-0----0-0-----0---0-0----6-----------0--0-6-|


N.C. D#5
/1.5______________/1___\2___/1_______/0.5____________\7____________
a +S S T S T +S +T T S S a +S S T T S +Q
|------------------------------------------------------------------||
|------------------------------------------------------------------||
|-4-----(4)-0-4-0---4---(4)--(4)p0h2---0-----(0)h4-7p4p0---(0)-----||
|------------------------------------------------------------------||
|------------------------------------3-----------------------------||
|------------------------------------------------------------------||
|
| PM--------------------------------------| PM-|
| S S S S S S S S S S E S S E
|------------------------------------------------------------------||
|------------------------------------------------------------------||
|------------------------------------------------------------------||
|------------------------------------------------------------------||
|--------------------------------------------------6-------------6-||
|--------0--0-0---0------0----0----0-0--------0--0-6--------0--0-6-||


N.C. E5 F5VIIIN.C. C#5 D5
Gtr I
PM--| PM--| PM--|
S E S Q S E S Q S E S Q Q Q
|--------------------|----------------|
|--------------------|----------------|
|--------------------|----------------|
|----------------10--|----------------|
|-------2---------8--|-------4--4--5--|
|-0-0-0-0--0-0-0-----|-0-0-0-4--4--5--|
|
| Gtr II
| PM--| PM--| PM--|
| S E S Q S E S Q S E S Q Q Q
|--------------------|----------------|
|--------------------|----------------|
|--------------------|----------------|
|----------------10--|-------6--6--7--|
|-------2---------8--|-------4--4--5--|
|-0-0-0-0--0-0-0-----|-0-0-0----------|


N.C. E5 F5VIIIN.C. C#5 D5
PM----| PM----| PM----|
S S S S Q S S S S Q S S S S Q Q Q
|------------------------|------------------|
|------------------------|------------------|
|------------------------|------------------|
|--------------------10--|------------------|
|---------2-----------8--|---------4--4--5--|
|-0-0-0-0-0--0-0-0-0-----|-0-0-0-0-4--4--5--|
|
| PM----| PM----| PM----|
| S S S S Q S S S S Q S S S S Q Q Q
|------------------------|------------------|
|------------------------|------------------|
|------------------------|------------------|
|--------------------10--|---------6--6--7--|
|---------2-----------8--|---------4--4--5--|
|-0-0-0-0-0--0-0-0-0-----|-0-0-0-0----------|


N.C.
Gtrs I, II
PM--------------------------------------------------------------|
S S S S S S S S S S S S S S S S S S S S S S S S S S S S S S S S
|---------------------------------|---------------------------------||
|---------------------------------|---------------------------------||
|---------------------------------|---------------------------------||
|---------------------------------|---------------------------------||
|---------------------------------|---------------------------------||
|-0-0-0-0-0-0-0-0-0-0-0-0-0-0-0-0-|-0-0-0-0-0-0-0-0-0-0-0-0-0-0-0-0-||


Double time feel Q=248
N.C. F#5
PM----------------------------------------------|
S S S S S S S S S S S S S S S S S S S S S S S S Q Q 4x
||----------------------------------|------------------------||
||o---------------------------------|-----------------------o||
||----------------------------------|------------------------||
||----------------------------------|------------------------||
||o---------------------------------|-----------------4--4--o||
||--2-3-3-3-3-3-3-3-3-3-3-3-3-3-3-3-|-5-2-2-2-2-2-2-2-2--2---||


N.C.
PM----------------------------------------------|
S S S S S S S S S S S S S S S S S S S S S S S S E E E E 4x
||----------------------------------|--------------------------||
||o---------------------------------|-------------------------o||
||----------------------------------|--------------------------||
||----------------------------------|--------------------------||
||o---------------------------------|-----------------2---2---o||
||--1-1-1-1-1-1-1-1-1-1-1-1-1-1-1-1-|-1-1-1-1-1-1-1-1---4---4--||


3rd Verse
Original Tempo Q=124
E5 Bb5
3/4 4/4
PM PM--------| PM PM------| PM----| PM----| PM----|
S S E S S S S S S E E S S E S S S S S S E E S S S S E S S S S E S S S S
|---------------------------|-------------------||-----------------------------|
|---------------------------|-------------------||-----------------------------|
|---------------------------|-------------------||-----------------------------|
|---------------------------|-------------------||---------3---------3---------|
|-----2-------------2-2-----|-2-------------2-2-||---------1---------1---------|
|-0-0-0-0-0-0-0-0-0-0-0-0-0-|-0-0-0-0-0-0-0-0-0-||-0-0-0-0---0-0-0-0---0-0-0-0-|


B5Bb5
PM----| PM| PM----------------| PM----| PM-------
S S S S E S S S S E S S S S S S S S E S S S S E S S S S
|-----------------------------||------------------------------|
|-----------------------------||o-----------------------------|
|-----------------------------||------------------------------|
|---------3-----3-4-3---------||----------3---------3---------|
|---------1-----1-2-1---------||o---------1---------1---------|
|-0-0-0-0---0-0-------0-0-0-0-||--0-0-0-0---0-0-0-0---0-0-0-0-|


B5Bb5
-------| PM| PM----|
S S S S E S S S S E S S S S 3x
|------------------------------||
|-----------------------------o||
|------------------------------||
|---------3-----3-4-3----------||
|---------1-----1-2-1---------o||
|-0-0-0-0---0-0-------0-0-0-0--||


E5 F5E5 F5E5
PM| PM----| PM| PM----|
Q S S E Q S S S S Q S S E Q S S S S
|---------------------|---------------------|
|---------------------|---------------------|
|---------------------|---------------------|
|---------------------|---------------------|
|-2------3-2----------|-2------3-2----------|
|-0--0-0-1-0--0-0-0-0-|-0--0-0-1-0--0-0-0-0-|


Chorus
N.C.
PM--------| PM--------|
S S S S S S S S S S S S S S S S
||-----------------------------------|
||o----------------------------------|
||--7s9-------------7s9--------------|
||-----------------------------------|
||o-5s7-------------5s7--------------|
||------0-0-0-0-0-0-----0-0-0-0-0-0--|


PM| PM| PM--------------------| PM----|
S S S S S S S S S S S S S S S S S S S S E S S S S E Q
|------------------------------------||------------------------*|
|-----------------------------------o||------------------------*|
|-7s9-----9s10-----9s10--------------||------------------------*|
|------------------------------------||------------------------*|
|-5s7-----7s=8-----7s=8-------------o||---------1---------1----*|
|-----0-0------0-0------0-0-0-0-0-0--||-0-0-0-0---0-0-0-0------*|



Duration Legend
---------------
W - whole; H - half; Q - quarter; E - 8th; S - 16th; T - 32nd; X - 64th; a - acciaccatura
+ - note tied to previous; . - note dotted; .. - note double dotted
Uncapitalized letters represent notes that are staccato (1/2 duration)
Irregular groupings are notated above the duration line
Duration letters will always appear directly above the note/fret number it represents the
duration for. Duration letters with no fret number below them represent rests. Multi-
bar rests are notated in the form Wxn, where n is the number of bars to rest for. Low
melody durations appear below the staff

Tablature Legend
----------------
h - hammer-on
p - pull-off
b - bend
pb - pre-bend
r - bend release (if no number after the r, then release immediately)
/\ - slide into or out of (from/to "nowhere")
s - legato slide
S - shift slide
- natural harmonic
[n] - artificial harmonic
n(n) - tapped harmonic
~ - vibrato
tr - trill
T - tap
TP - trem. picking
PM - palm muting
\n/ - tremolo bar dip; n = amount to dip
\n - tremolo bar down
n/ - tremolo bar up
/n\ - tremolo bar inverted dip
= - hold bend; also acts as connecting device for hammers/pulls
- volume swell (louder/softer)
x - on rhythm slash represents muted slash
o - on rhythm slash represents single note slash

Misc Legend
-----------
| - bar
|| - double bar
||o - repeat start
o|| - repeat end
*| - double bar (ending)
: - bar (freetime)
$ - Segno
& - Coda
Tempo markers - = BPM(8/16=s8/s16), where s8 = swing 8ths, s16 = swing 16ths



Like us on Facebook.....
-> Loading Time :0.0538 sec