Meaning of Life Tabs & Lyrics by Disturbed

Meaning of Life

guitar tabs lyrics

Disturbed

Album : The Sickness nu metal PlayStop



MEANING OF LIFE
As recorded by Disturbed
(On the 2000 album The Sickness)

This tab is perfect, but it's from the 'The Sickness Tab Book',
I take no credit for this.

Words and Music by Disturbed

Tuning - Eb Ab Db Gb Bb Eb

--------------------------
Guitar I - Heavy Distortion - 'Untitled'
Guitar II - Heavy Distortion - 'Untitled'

Moderately fast rock Q = 126

Intro:
Guitars I & II

E5 N.C. E5 N.C. E5N.C.
PM PM Pick slide
Wx4 E E Q H 3x E E Q H E E Q Q Q
||--------||----------------||-------------|--------------|
||--------||o--------------o||-------------|--------------|
||--------||----------------||-------------|--------------|
||--------||----2-----------||---2---------|--------------|
||--------||o-2-2----------o||-2-2---------|--------X\X\--|
||--------||--0-0-----------||-0-0---------|-0------X\X\--|

F5E5 G5 A5 F5E5 F5E5 F5 G5 Ab5
PM-----------------------------------| PM-------------------| PM
E E E E S S S S +S S S S E E E E S S S S +E E E E E E S S S S +S S S S E E E E E E E E
||----------------------------|-----------------------|---------------------------|------------------||
||o---------------------------|-----------------------|---------------------------|-----------------o||
||----------------------------|-----------------------|---------------------------|------------------||
||----------------------------|-----------------------|---------------------------|------------------||
||o-3-2-----------------------|---------------5-(5)-7-|-3-2-----------------------|-3-2---3---5---6-o||
||--1-0-0-0-0-0-0-0-(0)-0-0-0-|-0-0-0-0-0-0-0-3-(3)-5-|-1-0-0-0-0-0-0-0-(0)-0-0-0-|-1-0-0-1---3---4--||

F5E5 G5 A5 F5E5 F5E5 F5 G5 Ab5
PM-----------------------------------| PM-------------------| PM
E E E E S S S S +S S S S E E E E S S S S +E E E E E E S S S S +S S S S E E E E E E E E
||----------------------------|-----------------------|---------------------------|-----------------|
||o---------------------------|-----------------------|---------------------------|-----------------| play
||----------------------------|-----------------------|---------------------------|-----------------| 2x
||----------------------------|-----------------------|---------------------------|-----------------|
||o-3-2-----------------------|---------------5-(5)-7-|-3-2-----------------------|-3-2---3---5---6-|
||--1-0-0-0-0-0-0-0-(0)-0-0-0-|-0-0-0-0-0-0-0-3-(3)-5-|-1-0-0-0-0-0-0-0-(0)-0-0-0-|-1-0-0-1---3---4-|

F5E5 G5 A5 F5E5 F5E5 F5 G5 Ab5
PM PM-----------------------------------| PM-----------------| PM
E E E E E E E E E E E E S S S S +S S S S E E E E S S S S +E E E E E E S S S S +S S S S E E E E E E E E
|------------------|---------------------------|-----------------------|---------------------------|-----------------|
|------------------|---------------------------|-----------------------|---------------------------|-----------------|
|------------------|---------------------------|-----------------------|---------------------------|-----------------|
|------------------|---------------------------|-----------------------|---------------------------|-----------------|
|-3-2---3---5---10-|-3-2-----------------------|---------------5-(5)-7-|-3-2-----------------------|-3-2---3---5---6-|
|-1-0-0-2---3---10-|-1-0-0-0-0-0-0-0-(0)-0-0-0-|-0-0-0-0-0-0-0-3-(3)-5-|-1-0-0-0-0-0-0-0-(0)-0-0-0-|-1-0-0-1---3---4-|

F5E5 G5 A5 F5E5 F5E5 F5 G5 Ab5
PM-----------------------------------| PM-------------------| PM
E E E E S S S S +S S S S E E E E S S S S +E E E E E E S S S S +S S S S E E E E E E E E
|---------------------------|-----------------------|---------------------------|-----------------|
|---------------------------|-----------------------|---------------------------|-----------------| play
|---------------------------|-----------------------|---------------------------|-----------------| 3x
|---------------------------|-----------------------|---------------------------|-----------------|
|-3-2-----------------------|---------------5-(5)-7-|-3-2-----------------------|-3-2---3---5---6-|
|-1-0-0-0-0-0-0-0-(0)-0-0-0-|-0-0-0-0-0-0-0-3-(3)-5-|-1-0-0-0-0-0-0-0-(0)-0-0-0-|-1-0-0-1---3---4-|

Chorus:
Guitar I Guitars I & II

N.C. E5F5E5F5E5 F5 E5F5E5 F5G(b5)
~~~ ~~~ PM----| PM------| PM--|
E E E E Q E E E E Q E E Q E E E E Q E E E E Q E E Q E E E E Q E E E E Q E E Q
|----------------|---------------|----------------|---------------|----------------|---------------|
|----------------|---------------|----------------|---------------|----------------|---------------|
|----------------|---------------|----------------|---------------|----------------|---------------|
|----------------|---------------|----------------|---------------|----------------|---------------|
|----------------|---------------|----------------|---------------|-2-3-2-3-2--2-3-|-2-3-2--2-3-4--|
|-0-1-0-1-0--0-1-|-0-1-0--0-1-3--|-0-1-0-1-0--0-1-|-0-1-0--0-1-3--|-0-1-0-1-0--0-1-|-0-1-0--0-1-3--|

Bridge:
Guitars I & II
E5F5E5FF5 E5F5 E5F5E5 E5F5G(b5) E5
PM-----| PM-------| PM---| feedback
E E E E Q E E E E Q E E Q W +W +W +W +W +W +W +H. Q
|----------------|----------------||------|--------|--------|--------|--------|--------|--------|----------|
|----------------|---------------o||------|--------|--------|--------|--------|--------|--------|----------|
|----------------|----------------||------|--------|--------|--------|--------|--------|--------|----------|
|----------------|----------------||-2----|-(2)----|-(2)----|-(2)----|-(2)----|-(2)----|-(2)----|-(2)------|
|-2-3-2-3-2--2-3-|-2-3-2--2-3-4--o||-2----|-(2)----|-(2)----|-(2)----|-(2)----|-(2)----|-(2)----|-(2)------|
|-0-1-0-1-0--0-1-|-0-1-0--0-1-3---||-0----|-(0)----|-(0)----|-(0)----|-(0)----|-(0)----|-(0)----|-(0)------|

E5 F5 E5
PM-| PM-|
E E E E E E S S E E E E E E E E E E E E E E E S S E E E Q H
|-------------------|-----------------| |-------------------|-------------|
|-------------------|-----------------\ play \-------------------|-------------|
|-------------------|-----------------\ 7x \-------------------|-------------|
|-2-2---2-2-------2-|---2-2---2-2-2-3-\ then \-2-2---2-2-------2-|-2-----------|
|-2-2---2-2-------2-|---2-2---2-2-2-3-\ play \-2-2---2-2-------2-|-2-----------|
|-0-0---0-0---0-0-0-|---0-0---0-0-0-1-| |-0-0---0-0---0-0-0-|-0-----------|

Outro:
Guitars I & II

F5E5 G5 A5 F5E5 F5E5 F5 G5 Ab5
PM-----------------------------------| PM-------------------| PM
E E E E S S S S +S S S S E E E E S S S S +E E E E E E S S S S +S S S S E E E E E E E E
|---------------------------|-----------------------|---------------------------|-----------------|
|---------------------------|-----------------------|---------------------------|-----------------| play
|---------------------------|-----------------------|---------------------------|-----------------| 4x
|---------------------------|-----------------------|---------------------------|-----------------|
|-3-2-----------------------|---------------5-(5)-7-|-3-2-----------------------|-3-2---3---5---6-|
|-1-0-0-0-0-0-0-0-(0)-0-0-0-|-0-0-0-0-0-0-0-3-(3)-5-|-1-0-0-0-0-0-0-0-(0)-0-0-0-|-1-0-0-1---3---4-|

F5E5
PM-----------------------------------------------|
E E E E S S S S +S S S S E E E E S S S S +S S S S
|---------------------------|---------------------------|
|---------------------------|---------------------------| play
|---------------------------|---------------------------| 2x
|---------------------------|---------------------------|
|-3-2-----------------------|---------------------------|
|-1-0-0-0-0-0-0-0-(0)-0-0-0-|-0-0-0-0-0-0-0-0-(0)-0-0-0-|

F5E5 F5E5 F5 G5 Ab5
E E E E S S S S +S S S S E E E E E E E E
|---------------------------|-----------------*|
|---------------------------|-----------------*|
|---------------------------|-----------------*|
|---------------------------|-----------------*|
|-3-2-----------------------|-3-2---3---5---6-*|
|-1-0-0-0-0-0-0-0-(0)-0-0-0-|-1-0-0-1---3---4-*|

Time Markers
------------
W = whole note
H = half note
Q = quarter note
E = eighth note
S = sixteenth note
T = thirty-second note
X = sixty-fourth note

Notes will always appear above the note they represent.
Notes with no note in the fret box represent a rest.
Non capital notes are staccato (1/2 duration)

------------
If you can't figure out any of the other stuff I use, your to stupid to be using this tab anyways.

Like us on Facebook.....
-> Loading Time :0.0292 sec