Life Effect Tabs & Lyrics by Stars

Life Effect

guitar tabs lyrics

Stars

Album : Heart indie pop PlayStop



Title: 'Life Effect'
Artist: Stars
Album: Heart
Tabbed by Jorge Díaz ([email protected])


E A D G B E

A --X-0-2-2-2-0--|
Dsus2 --x-x-0-2-3-0--|

E --0-2-2-1-0-0--|

[ Capo 1st Fret ]


Verse 1: (0:02)

A Dsus2
Sorry for wasting your time
A Dsus2
Five more months on the telephone line
A Dsus2
Hours of asking if you were fine
A Dsus2
And saying I was fine too


Verse 2: (0:21)

A Dsus2
Sorry but I've got to go
A Dsus2
The birth was quick but the death is slow
A Dsus2
There was so much I didn't know
A E
So much I never knew about you


Chorus: (0:42)

A E A Dsus2
E -5---------------5---------------5---------------5---------------|
B -----2---2h3-2-------2---2h3-2-------2---2h3-2-------2---2h3-2---|
G ---2---2------2----2---2------2----2---2------2----2---2------2--|
D -----------------------------------------------------------------|
A -----------------------------------------------------------------|
E -----------------------------------------------------------------|
And so we disconnect The room grows quiet around us

A E A Dsus2
E -5---------------5---------------5---------------5---------------|
B -----2---2h3-2-------2---2h3-2-------2---2h3-2-------2---2h3-2---|
G ---2---2------2----2---2------2----2---2------2----2---2------2--|
D -----------------------------------------------------------------|
A -----------------------------------------------------------------|
E -----------------------------------------------------------------|
It's called the life effect Will it always surround us?


A Dsus2
E -5---------------5---------------|
B -----2---2h3-2-------2---2h3-2---|
G ---2---2------2----2---2------2--|
D ---------------------------------| (x4)
A ---------------------------------|
E ---------------------------------|


Verse 3: (1:20)

A Dsus2
Who made you happy last night?
A Dsus2
I don't know his name but Christ can he fight
A Dsus2
As I fell he told me you had a light
A Dsus2
A light that shone inside you


Verse 4: (Amy) (1:38)

A Dsus2
I found myself a decent man now
A Dsus2
I love him because I can
A Dsus2
The bravest that I've ever been
E
Was when I ran away from you


Chorus: (1:57)

A E A Dsus2
E -5---------------5---------------5---------------5---------------|
B -----2---2h3-2-------2---2h3-2-------2---2h3-2-------2---2h3-2---|
G ---2---2------2----2---2------2----2---2------2----2---2------2--|
D -----------------------------------------------------------------|
A -----------------------------------------------------------------|
E -----------------------------------------------------------------|
And so we disconnect The room grows quiet around us

A E A Dsus2
E -5---------------5---------------5---------------5---------------|
B -----2---2h3-2-------2---2h3-2-------2---2h3-2-------2---2h3-2---|
G ---2---2------2----2---2------2----2---2------2----2---2------2--|
D -----------------------------------------------------------------|
A -----------------------------------------------------------------|
E -----------------------------------------------------------------|
It's called the life effect Will it always surround us?

A E A Dsus2
E -5---------------5---------------5---------------5---------------|
B -----2---2h3-2-------2---2h3-2-------2---2h3-2-------2---2h3-2---|
G ---2---2------2----2---2------2----2---2------2----2---2------2--|
D -----------------------------------------------------------------|
A -----------------------------------------------------------------|
E -----------------------------------------------------------------|
And so we disconnect The room grows quiet around us

A E A Dsus2
E -5---------------5---------------5---------------5---------------|
B -----2---2h3-2-------2---2h3-2-------2---2h3-2-------2---2h3-2---|
G ---2---2------2----2---2------2----2---2------2----2---2------2--|
D -----------------------------------------------------------------|
A -----------------------------------------------------------------|
E -----------------------------------------------------------------|
Nothing left to protect The end has finally found us


A Dsus2
E -5---------------5---------------|
B -----2---2h3-2-------2---2h3-2---|
G ---2---2------2----2---2------2--|
D ---------------------------------| (x2)
A ---------------------------------|
E ---------------------------------|


Outro: (2:44)

A
The day is almost over
Dsus2
It's almost time for bed
A
So now you've finally lost me
Dsus2
Rest your weary head


A Dsus2 A Dsus2 A
E -----------------------------------------------|
B -7--5--2-(2)-----7--5--2-(2)-----7--5--2--(2)--|
G -----------------------------------------------|
D -----------------------------------------------|
A -----------------------------------------------|
E -----------------------------------------------|

Like us on Facebook.....
-> Loading Time :0.0150 sec