Last Caress Tabs & Lyrics by Metallica

Last Caress

guitar tabs lyrics

Metallica

Album : One (live)PlayStop



Performed On Garage Days Re-revisited.

E||--------------------|----------------------|--------------------|
B||--------------------|----------------------|--------------------|
G||--------------------|----------------------|--------------------|
D||--------------------|----------10----12----|--------------------|
A||--10----------------|----------8-----10----|--10----------------|
E||--8-----------------|----------------------|--8-----------------|



----------------------|--------------------|--------------------|
----------------------|--------------------|--------------------|
----------------------|--------------------|--------------------|
----------10----12----|--10----------------|--------------------|
----------8-----10----|--8-----------------|--12----------------|
----------------------|--------------------|--10----------------|



--------------------------------|------------------------------|
--------------------------------|------------------------------|
--------------------------------|------------------------------|
--------------------------------|------------------10----12----|
--10----10--10--10--10--10--10--|--10--10--10--10--8-----10----|
--8-----8---8---8---8---8---8---|--8---8---8---8---------------|



--------------------------------|------------------------------|
--------------------------------|------------------------------|
--------------------------------|------------------------------|
--------------------------------|------------------10----12----|
--10----10--10--10--10--10--10--|--10--10--10--10--8-----10----|
--8-----8---8---8---8---8---8---|--8---8---8---8---------------|



--------------------------------|------------------------------|
--------------------------------|------------------------------|
--------------------------------|------------------------------|
--------------------------------|------------------10----12----|
--10----10--10--10--10--10--10--|--10--10--10--10--8-----10----|
--8-----8---8---8---8---8---8---|--8---8---8---8---------------|



--------------------------------|------------------------------|
--------------------------------|------------------------------|
--------------------------------|------------------------------|
--------------------------------|------------------10----12----|
--10----10--10--10--10--10--10--|--10--10--10--10--8-----10----|
--8-----8---8---8---8---8---8---|--8---8---8---8---------------|



--------------------------------|--------------------------------|
--------------------------------|--------------------------------|
--------------------------------|--------------------------------|
--10----10--10--10--10--10--10--|--------------------------------|
--8-----8---8---8---8---8---8---|--12----12--12--12--12--12--12--|
--------------------------------|--10----10--10--10--10--10--10--|



--------------------------------|--------------------------------|
--------------------------------|--------------------------------|
--------------------------------|--------------------------------|
--------------------------------|--------------------------------|
--10----10--10--10--10--10--10--|--10--10--10--10--10----10--10--|
--8-----8---8---8---8---8---8---|--8---8---8---8---8-----8---8---|



--------------------------------|--------------------------------|
--------------------------------|--------------------------------|
--------------------------------|--------------------------------|
--10----10--10--10--10--10--10--|--12----12--12--12--12--12--12--|
--8-----8---8---8---8---8---8---|--10----10--10--10--10--10--10--|
--------------------------------|--------------------------------|



---------------------------|-------------------------|
---------------------------|-------------------------|
---------------------------|-------------------------|
----------------9----9--9--|-------------------------|
--10----10--10--7----7--7--|--7----7--7--7--7--7--7--|
--8-----8---8--------------|--5----5--5--5--5--5--5--|



--------------------------------|--------------------------------|
--------------------------------|--------------------------------|
--------------------------------|--------------------------------|
--10----10--10--10--10--10--10--|--12----12--12--12--12--12--12--|
--8-----8---8---8---8---8---8---|--10----10--10--10--10--10--10--|
--------------------------------|--------------------------------|



|-----------------------------------|---------------------------------||
|-----------------------------------|---------------------------------||
|*----------------------------------|--------------------------------*||
|*----------------------------------|--10--10--10--12----12--12--12--*||
|---10--10--10--10--10--10--10--10--|--8---8---8---10----10--10--10---||
|---8---8---8---8---8---8---8---8---|---------------------------------||



--------------------------------|------------------------------|
--------------------------------|------------------------------|
--------------------------------|------------------------------|
--------------------------------|------------------10----12----|
--10----10--10--10--10--10--10--|--10--10--10--10--8-----10----|
--8-----8---8---8---8---8---8---|--8---8---8---8---------------|



--------------------------------|------------------------------|
--------------------------------|------------------------------|
--------------------------------|------------------------------|
--------------------------------|------------------10----12----|
--10----10--10--10--10--10--10--|--10--10--10--10--8-----10----|
--8-----8---8---8---8---8---8---|--8---8---8---8---------------|



--------------------------------|--------------------------------|
--------------------------------|--------------------------------|
--------------------------------|--------------------------------|
--10----10--10--10--10--10--10--|--------------------------------|
--8-----8---8---8---8---8---8---|--12----12--12--12--12--12--12--|
--------------------------------|--10----10--10--10--10--10--10--|



--------------------------------|--------------------------------|
--------------------------------|--------------------------------|
--------------------------------|--------------------------------|
--------------------------------|--------------------------------|
--10----10--10--10--10--10--10--|--10--10--10--10--10----10--10--|
--8-----8---8---8---8---8---8---|--8---8---8---8---8-----8---8---|



--------------------------------|--------------------------------|
--------------------------------|--------------------------------|
--------------------------------|--------------------------------|
--10----10--10--10--10--10--10--|--12----12--12--12--12--12--12--|
--8-----8---8---8---8---8---8---|--10----10--10--10--10--10--10--|
--------------------------------|--------------------------------|



---------------------------|-------------------------|
---------------------------|-------------------------|
---------------------------|-------------------------|
----------------9----9--9--|-------------------------|
--10----10--10--7----7--7--|--7----7--7--7--7--7--7--|
--8-----8---8--------------|--5----5--5--5--5--5--5--|



--------------------------------|--------------------------------|
--------------------------------|--------------------------------|
--------------------------------|--------------------------------|
--10----10--10--10--10--10--10--|--12----12--12--12--12--12--12--|
--8-----8---8---8---8---8---8---|--10----10--10--10--10--10--10--|
--------------------------------|--------------------------------|



----------------------------------|--------------------------------|
----------------------------------|--------------------------------|
----------------------------------|--------------------------------|
----------------------------------|--10--10--10--12----12--12--12--|
--10--10--10--10--10--10--10--10--|--8---8---8---10----10--10--10--|
--8---8---8---8---8---8---8---8---|--------------------------------|



----------------------------------|--------------------------------|
----------------------------------|--------------------------------|
----------------------------------|--------------------------------|
----------------------------------|--10--10--10--12----12--12--12--|
--10--10--10--10--10--10--10--10--|--8---8---8---10----10--10--10--|
--8---8---8---8---8---8---8---8---|--------------------------------|



--------------------------------|------------------------------|
--------------------------------|------------------------------|
--------------------------------|------------------------------|
--------------------------------|------------------10----12----|
--10----10--10--10--10--10--10--|--10--10--10--10--8-----10----|
--8-----8---8---8---8---8---8---|--8---8---8---8---------------|



--------------------------------|------------------------------|
--------------------------------|------------------------------|
--------------------------------|------------------------------|
--------------------------------|------------------10----12----|
--10----10--10--10--10--10--10--|--10--10--10--10--8-----10----|
--8-----8---8---8---8---8---8---|--8---8---8---8---------------|



--------------------------------|--------------------------------|
--------------------------------|--------------------------------|
--------------------------------|--------------------------------|
--10----10--10--10--10--10--10--|--------------------------------|
--8-----8---8---8---8---8---8---|--12----12--12--12--12--12--12--|
--------------------------------|--10----10--10--10--10--10--10--|



--------------------------------|--------------------------------|
--------------------------------|--------------------------------|
--------------------------------|--------------------------------|
--------------------------------|--------------------------------|
--10----10--10--10--10--10--10--|--10--10--10--10--10----10--10--|
--8-----8---8---8---8---8---8---|--8---8---8---8---8-----8---8---|



--------------------------------|--------------------------------|
--------------------------------|--------------------------------|
--------------------------------|--------------------------------|
--10----10--10--10--10--10--10--|--12----12--12--12--12--12--12--|
--8-----8---8---8---8---8---8---|--10----10--10--10--10--10--10--|
--------------------------------|--------------------------------|



---------------------------|-------------------------|
---------------------------|-------------------------|
---------------------------|-------------------------|
----------------9----9--9--|-------------------------|
--10----10--10--7----7--7--|--7----7--7--7--7--7--7--|
--8-----8---8--------------|--5----5--5--5--5--5--5--|



--------------------------------|--------------------|
--------------------------------|--------------------|
--------------------------------|--------------------|
--10----10--10--10--10--10--10--|--12----------------|
--8-----8---8---8---8---8---8---|--10----------------|
--------------------------------|--------------------|


----------------------------------|
----------------------------------|
----------------------------------|
----------------------------------|
--10--10--10--10--10--10--10--10--|
--8---8---8---8---8---8---8---8---|



--------------------------------|----------------------------------|
--------------------------------|----------------------------------|
--------------------------------|----------------------------------|
--10--10--10--12----12--12--12--|----------------------------------|
--8---8---8---10----10--10--10--|--10--10--10--10--10--10--10--10--|
--------------------------------|--8---8---8---8---8---8---8---8---|



--------------------------------|----------------------------------|
--------------------------------|----------------------------------|
--------------------------------|----------------------------------|
--10--10--10--12----12--12--12--|----------------------------------|
--8---8---8---10----10--10--10--|--10--10--10--10--10--10--10--10--|
--------------------------------|--8---8---8---8---8---8---8---8---|



--------------------------------|----------------------------------|
--------------------------------|----------------------------------|
--------------------------------|----------------------------------|
--10--10--10--12----12--12--12--|----------------------------------|
--8---8---8---10----10--10--10--|--10--10--10--10--10--10--10--10--|
--------------------------------|--8---8---8---8---8---8---8---8---|



--------------------------------|----------------------------------|
--------------------------------|----------------------------------|
--------------------------------|----------------------------------|
--10--10--10--12----12--12--12--|----------------------------------|
--8---8---8---10----10--10--10--|--10--10--10--10--10--10--10--10--|
--------------------------------|--8---8---8---8---8---8---8---8---|



--------------------------------|----------------------------------|
--------------------------------|----------------------------------|
--------------------------------|----------------------------------|
--10--10--10--12----12--12--12--|----------------------------------|
--8---8---8---10----10--10--10--|--10--10--10--10--10--10--10--10--|
--------------------------------|--8---8---8---8---8---8---8---8---|



--------------------------------|----------------------------------|
--------------------------------|----------------------------------|
--------------------------------|----------------------------------|
--10--10--10--12----12--12--12--|----------------------------------|
--8---8---8---10----10--10--10--|--10--10--10--10--10--10--10--10--|
--------------------------------|--8---8---8---8---8---8---8---8---|



--------------------------------|----------------------------------|
--------------------------------|----------------------------------|
--------------------------------|----------------------------------|
--10--10--10--12----12--12--12--|----------------------------------|
--8---8---8---10----10--10--10--|--10--10--10--10--10--10--10--10--|
--------------------------------|--8---8---8---8---8---8---8---8---|



--------------------------------|--------------------|
--------------------------------|--------------------|
--------------------------------|--------------------|
--10--10--10--12----12--12--12--|--------------------|
--8---8---8---10----10--10--10--|--10----------------|
--------------------------------|--8-----------------|

Green Hell

--------------------------------------------------------------------|
--------------------------------------------------------------------|
--------------------------------------------------------------------|
--------------------------------------------------------------------|
---5--5--5--5--5--5--5--5--5--5--5--5--5--5--5--5--5--5--5--5--5--5-|
---3--3--3--3--3--3--3--3--3--3--3--3--3--3--3--3--3--3--3--3--3--3-| X2




-----------------------------------------------|
-----------------------------------------------|
----------------------------------------3------|
-------------------------------3--------1--5---|
----5--5--5--5--5--5--5--5-----1--5--------3---|
----3--3--3--3--3--3--3--3--------3------------| X3



|---------------------------|
|---------------------------|
|---7--7--7--7--7--7--7--7--|
|---7--7--7--7--7--7--7--7--|
|---5--5--5--5--5--5--5--5--|
|---------------------------|


-------------------------------------------------|
-------------------------------------------------|
-------------------------------------------------|
-5--5--5--5--5--5--5--5--2--2--2--2--2--2--2--2--|
-5--5--5--5--5--5--5--5--2--2--2--2--2--2--2--2--|
-3--3--3--3--3--3--3--3--0--0--0--0--0--0--0--0--| X4

|---------------------------|
|---------------------------|
|---7--7--7--7--7--7--7--7--|
|---7--7--7--7--7--7--7--7--|
|---5--5--5--5--5--5--5--5--|
|---------------------------|

-----------------------------------------------|
-----------------------------------------------|
----------------------------------------3------|
-------------------------------3--------1--5---|
----5--5--5--5--5--5--5--5-----1--5--------3---|
----3--3--3--3--3--3--3--3--------3------------| X3

--------------------------------------------------------------------|
--------------------------------------------------------------------|
--------------------------------------------------------------------|
--------------------------------------------------------------------|
---5--5--5--5--5--5--5--5--5--5--5--5--5--5--5--5--5--5--5--5--5--5-|
---3--3--3--3--3--3--3--3--3--3--3--3--3--3--3--3--3--3--3--3--3--3-|

-----------------------------------------------|
-----------------------------------------------|
----------------------------------------3------|
-------------------------------3--------1--5---|
----5--5--5--5--5--5--5--5-----1--5--------3---|
----3--3--3--3--3--3--3--3--------3------------|

--------------------------------------------------------------------|
--------------------------------------------------------------------|
--------------------------------------------------------------------|
--------------------------------------------------------------------|
---5--5--5--5--5--5--5--5--5--5--5--5--5--5--5--5--5--5--5--5--5--5-|
---3--3--3--3--3--3--3--3--3--3--3--3--3--3--3--3--3--3--3--3--3--3-|

-----------------------------------------------|
-----------------------------------------------|
----------------------------------------3------|
-------------------------------3--------1--5---|
----5--5--5--5--5--5--5--5-----1--5--------3---|
----3--3--3--3--3--3--3--3--------3------------| X5

|---------------------------|
|---------------------------|
|---7--7--7--7--7--7--7--7--|
|---7--7--7--7--7--7--7--7--|
|---5--5--5--5--5--5--5--5--|
|---------------------------|

End on
-------------|
-------------|
-------------|
-5~~~~~~~~~5-|
-5~~~~~~~~~5-|
-3~~~~~~~~~3-|

Like us on Facebook.....
-> Loading Time :0.0144 sec