Jumping Fences Tabs & Lyrics by The Olivia Tremor Control

Jumping Fences

guitar tabs lyrics

The Olivia Tremor Control

Album : Jumping FencesPlayStop



http://www.elephant6.com/bands/olivia.html

Tune your guitar down 1/4 step to match the song

Chords used:

Bb Bb/A Bb/Ab Cm F Ebm
E--0-----------------3-----1-----6----|
B--3-----------------4-----1-----7----|
G--3-----2-----1-----5-----2-----8----|

D--3-----3-----3-----5-----3-----8----|
A--1-----0-----X-----3-----3-----6----|
E--------------4-----------1----------|

Intro:

E-------------------------------------|
B--3-----------3----------------------|
G--3--3-----3--3--3------3-3-3-----3--|
D--3----3h5-3--3--3--3h5-3-3---3h5-3--|
A-------------------------------------|
E-------------------------------------|


Bb Bb/A Bb/Ab
Lazy man who can't find his words all caught up inside his head
Cm F
He is there with you
Cm F
He is there with you

Bb Bb/A
And when he can't speak from too much wine
Bb/Ab
You're always there with his line
Cm F
He wants to go home
C F
You know that jolly show must go on

Bb Bb/A Bb/Ab
But he sees me on you and you on summer buzz and summer heat
Cm F
But I don't know
Cm F
For go to the picture show today


Bb Bb/A
We're living day by day
Bb/Ab
And we both know that this world
Cm F
Can make no sense
Cm F
When you jumped everybody's fence, yeah


Bb Bb/A
We're living endlessly
Bb/Ab
And we both know that this world
Cm F
Can make no sense
Cm F
When you jumped everybody's fence

Bb Bb/A Bb/Ab
And you know it can
Cm F Cm F
Yeah, you know we can, yeah, yeah
Bb Bb/A Bb/Ab
Yeah, you know we can
Cm F Cm Ebm
Yeah, you know we can

Like us on Facebook.....
-> Loading Time :0.0065 sec