Hit the Floor Tabs & Lyrics by LINKIN PARK

Hit the Floor

guitar tabs lyrics

LINKIN PARK

Album : Meteora albums i own PlayStop



Ok, first of all, most of the TAB's for this song dont have the lyrics and are tabbed
So I did this tab with everything needed for the song. I hope you like it! I lined up the
to were it fits.

---------------------------------------------------------------------------
Tabbed by:IBANEZ-RG350EX (Justin [me])

Tuning:Db,Ab,Db,Gb,Bb,eb
INTRO
eb|------------------------------------------------------------------------|

Bb|------------------------------------------------------------------------|
Gb|------------------------------------------------------------------------|
Db|------------------------------------------------------------------------|
Ab|------------------------------------------------------------------------|
Db|-0-4-0-1--1-1-0---0-4-0-1--1-1-0---0-4-0-1--1-1-0---0-4-0-1--1-1-0------|
. . . . . . . . . . . . . . . . . . . . . . . . . . . .
eb|------------------------------------------------------------------------|
Bb|------------------------------------------------------------------------|
Gb|------------------------------------------------------------------------|
Db|0-8-8-8-7--0-4-0-1--1-1-0---0-8-8-8-7--0-4-0-1--1-1-0--------x2---------|
Ab|0-8-8-8-7--0-4-0-1--1-1-0---0-8-8-8-7--0-4-0-1--1-1-0-------------------|
Db|0-8-8-8-7--0-4-0-1--1-1-0---0-8-8-8-7--0-4-0-1--1-1-0-------------------|
VERSE
There are just too many times that people have tried to look inside of me
eb|------------------------------------------------------------------------|
Bb|------------------------------------------------------------------------|
Gb|------------------------------------------------------------------------|
Db|------------------------------------------------------------------------|
Ab|------------------------------------------------------------------------|
Db|------------0---4---0---1----1---1---0----------------------------------|
. . . . . . .

Wondering what I think of you when I protect you out of courtesy.
eb|------------------------------------------------------------------------|
Bb|------------------------------------------------------------------------|
Gb|------------------------------------------------------------------------|
Db|------------------------------------------------------------------------|
Ab|------------------------------------------------------------------------|
Db|----0----4----0----1-----1----1----0------------------------------------|
. . . . . . .

Too many times I've held on when I needed to push away
eb|------------------------------------------------------------------------|
Bb|------------------------------------------------------------------------|
Gb|------------------------------------------------------------------------|
Db|------------------------------------------------------------------------|
Ab|------------------------------------------------------------------------|
Db|----0----4----0----1-----1----1----0------------------------------------|
. . . . . . .

Afraid to say what was on my mind afraid to say what I need to say
eb|------------------------------------------------------------------------|
Bb|------------------------------------------------------------------------|
Gb|------------------------------------------------------------------------|
Db|------------------------------------------------------------------------|
Ab|------------------------------------------------------------------------|
Db|----0----4----0----1-----1----1----0------------------------------------|
. . . . . . .

Too many things you said about me when I'm not around.
eb|------------------------------------------------------------------------|
Bb|------------------------------------------------------------------------|
Gb|------------------------------------------------------------------------|
Db|------------------------------------------------------------------------|
Ab|------------------------------------------------------------------------|
Db|----0----4----0----1-----1----1----0------------------------------------|
. . . . . . .

You think having the upper hand means you gotta keep putting me down.
eb|------------------------------------------------------------------------|
Bb|------------------------------------------------------------------------|
Gb|------------------------------------------------------------------------|
Db|-------------------------------------------(wierd pedal thing)----------|
Ab|------------------------------------------------------------------------|
Db|----0----4----0----1-----1----1----0------------------------------------|
. . . . . . .

But I've had too many standoff's with you It's about as much as i can stand
eb|------------------------------------------------------------------------|
Bb|------------------------------------------------------------------------|
Gb|------------------------------------------------------------------------|
Db|-----------------------------------------(weird pedal thing)------------|
Ab|------------------------------------------------------------------------|
Db|----0----4----0----1-----1----1----0------------------------------------|
. . . . . . .

So I'm waitin till the upper hand is mine.
eb|------------------------------------------------------------------------|
Bb|------------------------------------------------------------------------|
Gb|------------------------------------------------------------------------|
Db|------------------------------------------------------------------------|
Ab|------------------------------------------------------------------------|
Db|----0----4----0----1-----1----1----0------------------------------------|
. . . . . . .
CHORUS
One minute next youre not Makin your Just before you
youre on top watch it drop heart stop hit the floor
eb|------------------------------------------------------------------------|
Bb|------------------------------------------------------------------------|
Gb|------------------------------------------------------------------------|
Db|0-8-8-8-7--0-4-0-1--1-1-0---0-8-8-8-7--0-4-0-1--1-1-0-------------------|
Ab|0-8-8-8-7--0-4-0-1--1-1-0---0-8-8-8-7--0-4-0-1--1-1-0-------------------|
Db|0-8-8-8-7--0-4-0-1--1-1-0---0-8-8-8-7--0-4-0-1--1-1-0-------------------|

One mintute Next your not making your you think you won
your on top missed your shot heart stop and then it's all gone
eb|------------------------------------------------------------------------|
Bb|------------------------------------------------------------------------|
Gb|------------------------------------------------------------------------|
Db|0-8-8-8-7--0-4-0-1--1-1-0---0-8-8-8-7--0-4-0-1--1-1-0---0-1-------------|
Ab|0-8-8-8-7--0-4-0-1--1-1-0---0-8-8-8-7--0-4-0-1--1-1-0---0-1-------------|
Db|0-8-8-8-7--0-4-0-1--1-1-0---0-8-8-8-7--0-4-0-1--1-1-0---0-1-------------|

VERSE
So many people like me put so must trust in all your lies
eb|------------------------------------------------------------------------|
Bb|------------------------------------------------------------------------|
Gb|------------------------------------------------------------------------|
Db|------------------------------------------------------------------------|
Ab|------------------------------------------------------------------------|
Db|----0----4----0----1-----1----1----0------------------------------------|
. . . . . . .

So concered of what you think to just say what we feel inside
eb|------------------------------------------------------------------------|
Bb|------------------------------------------------------------------------|
Gb|------------------------------------------------------------------------|
Db|------------------------------------------------------------------------|
Ab|------------------------------------------------------------------------|
Db|----0----4----0----1-----1----1----0------------------------------------|
. . . . . . .

So many people like me walk on eggshells all day long.
eb|------------------------------------------------------------------------|
Bb|------------------------------------------------------------------------|
Gb|------------------------------------------------------------------------|
Db|------------------------------------------------------------------------|
Ab|------------------------------------------------------------------------|
Db|----0---4---0----1---1---1---0------------------------------------------|
. . . . . . .

All i know is that all i want is to feel like im not stepped on.
eb|------------------------------------------------------------------------|
Bb|------------------------------------------------------------------------|
Gb|------------------------------------------------------------------------|
Db|------------------------------------------------------------------------|
Ab|------------------------------------------------------------------------|
Db|----0----4----0----1-----1----1----0------------------------------------|
. . . . . . .

There are so many things you say that make me feel youve crossed the line.
eb|------------------------------------------------------------------------|
Bb|------------------------------------------------------------------------|
Gb|------------------------------------------------------------------------|
Db|-----------------------------------------(weird pedal thing)------------|
Ab|------------------------------------------------------------------------|
Db|----0----4----0----1-----1----1----0------------------------------------|
. . . . . . .

What goes up will surely fall and im countin down the time
eb|------------------------------------------------------------------------|
Bb|------------------------------------------------------------------------|
Gb|------------------------------------------------------------------------|
Db|------------------------------------------------------------------------|
Ab|------------------------------------------------------------------------|
Db|----0----4----0----1-----1----1----0------------------------------------|
. . . . . . .

Cause ive had so many standoffs with you its about as much as i can stand
eb|------------------------------------------------------------------------|
Bb|------------------------------------------------------------------------|
Gb|------------------------------------------------------------------------|
Db|---------------------------------------(weird pedal thing)--------------|
Ab|------------------------------------------------------------------------|
Db|----0----4----0----1-----1----1----0------------------------------------|
. . . . . . .

So im waitin until the upper hand is mine.
eb|------------------------------------------------------------------------|
Bb|------------------------------------------------------------------------|
Gb|------------------------------------------------------------------------|
Db|-----------------------------------------(wierd pedal thing)------------|
Ab|------------------------------------------------------------------------|
Db|----0----4----0----1-----1----1----0------------------------------------|
. . . . . . .

CHORUS
One minute next youre not Makin your Just before you
youre on top watch it drop heart stop hit the floor
eb|------------------------------------------------------------------------|
Bb|------------------------------------------------------------------------|
Gb|------------------------------------------------------------------------|
Db|0-8-8-8-7--0-4-0-1--1-1-0---0-8-8-8-7--0-4-0-1--1-1-0-------------------|
Ab|0-8-8-8-7--0-4-0-1--1-1-0---0-8-8-8-7--0-4-0-1--1-1-0-------------------|
Db|0-8-8-8-7--0-4-0-1--1-1-0---0-8-8-8-7--0-4-0-1--1-1-0-------------------|

One mintute Next your not making your you think you won
your on top missed your shot heart stop
eb|------------------------------------------------------------------------|
Bb|------------------------------------------------------------------------|
Gb|------------------------------------------------------------------------|
Db|0-8-8-8-7--0-4-0-1--1-1-0---0-8-8-8-7--0-4-0-1--1-1-0-------------------|
Ab|0-8-8-8-7--0-4-0-1--1-1-0---0-8-8-8-7--0-4-0-1--1-1-0-------------------|
Db|0-8-8-8-7--0-4-0-1--1-1-0---0-8-8-8-7--0-4-0-1--1-1-0-------------------|
Now its all
And then its all gooonnneee And then its all gooonnneee gone
eb|--------------------------------------------------------------|---------|
Bb|--------------------------------------------------------------|---------|
Gb|--------------------------------------------------------------|---------|
Db|-----------------0-0-0-03----------------------0-0-0-01-----x2|---------|
Ab|-----------------0-0-0-03----------------------0-0-0-01-------|---------|
Db|-----------------0-0-0-03----------------------0-0-0-01-------|---------|
Stop the note with your hand on the 0's exept the last one

BRIDGE
I know ill never trust a single thing you say
eb|------------------------------------------------------------------------|
Bb|------------------------------------------------------------------------|
Gb|------------------------------------------------------------------------|
Db|------------------------------------------------------------------------|
Ab|------------------------------------------------------------------------|
Db|----0---4---0----1---1---1---0------------------------------------------|
. . . . . . .

You knew your lies would divide us but you lied anyways
eb|------------------------------------------------------------------------|
Bb|------------------------------------------------------------------------|
Gb|------------------------------------------------------------------------|
Db|------------------------------------------------------------------------|
Ab|------------------------------------------------------------------------|
Db|----0---4---0----1---1---1---0------------------------------------------|
. . . . . . .

And all your lies have got you floating up above us all
eb|------------------------------------------------------------------------|
Bb|------------------------------------------------------------------------|
Gb|------------------------------------------------------------------------|
Db|------------------------------------------------------------------------|
Ab|------------------------------------------------------------------------|
Db|----0---4---0----1---1---1---0------------------------------------------|
. . . . . . .

But what goes up has got to fall
eb|------------------------------------------------------------------------|
Bb|------------------------------------------------------------------------|
Gb|------------------------------------------------------------------------|
Db|------------------------------------------------------------------------|
Ab|------------------------------------------------------------------------|
Db|----0---4---0----1---1---1---0------------------------------------------|
. . . . . . .

CHORUS
One minute next youre not Makin your Just before you
youre on top watch it drop heart stop hit the floor
eb|------------------------------------------------------------------------|
Bb|------------------------------------------------------------------------|
Gb|------------------------------------------------------------------------|
Db|0-8-8-8-7--0-4-0-1--1-1-0---0-8-8-8-7--0-4-0-1--1-1-0-------------------|
Ab|0-8-8-8-7--0-4-0-1--1-1-0---0-8-8-8-7--0-4-0-1--1-1-0-------------------|
Db|0-8-8-8-7--0-4-0-1--1-1-0---0-8-8-8-7--0-4-0-1--1-1-0-------------------|

One mintute Next your not making your you think you won
your on top missed your shot heart stop
eb|------------------------------------------------------------------------|
Bb|------------------------------------------------------------------------|
Gb|------------------------------------------------------------------------|
Db|0-8-8-8-7--0-4-0-1--1-1-0---0-8-8-8-7--0-4-0-1--1-1-0-------------------|
Ab|0-8-8-8-7--0-4-0-1--1-1-0---0-8-8-8-7--0-4-0-1--1-1-0-------------------|
Db|0-8-8-8-7--0-4-0-1--1-1-0---0-8-8-8-7--0-4-0-1--1-1-0-------------------|
Now its all
And then its all gooonnneee And then its all gooonnneee gone
eb|--------------------------------------------------------------|---------|
Bb|--------------------------------------------------------------|---------|
Gb|--------------------------------------------------------------|---------|
Db|-----------------0-0-0-03----------------------0-0-0-01-----x2|---------|
Ab|-----------------0-0-0-03----------------------0-0-0-01-------|---------|
Db|-----------------0-0-0-03----------------------0-0-0-01-------|---------|
Stop the note with your hand on the 0's exept the last one

eb|------------------------------------------------------------------------|
Bb|------------------------------------------------------------------------|
Gb|------------------------------------------------------------------------|
Db|--0-4-0-1--1-1-0---0-8-8-8-7--0-4-0-1--1-1-0----------------------------|
Ab|--0-4-0-1--1-1-0---0-8-8-8-7--0-4-0-1--1-1-0----------------------------|
Db|--0-4-0-1--1-1-0---0-8-8-8-7--0-4-0-1--1-1-0----------------------------|


| . palm mute
| / slide up
| \ slide down
| h hammer-on
| p pull-off
| ~ vibrato
| + harmonic
| x Mute note
============================================================================
Well, thats it

IBANEZ4LIFE! lol cya
BTW any complaints? comments? anything e-mail me @ kmillionaire_123@hotmail.com

Like us on Facebook.....
-> Loading Time :0.0128 sec