Hellfudge Tabs & Lyrics by Lard

Hellfudge

guitar tabs lyrics

Lard

Album : The Power of Lard punk PlayStop



From: Burning.Inside@f929.n273.z1.fidonet.org (Burning Inside)
Date: 24 Sep 95 00:33:17 -0400
Subject: TAB: Hellfudge by Lard


From: burning.inside@f929.n273.z1.fidonet.org

Hellfudge
by Lard
from the "Power of Lard" EP

(Biafra/Barker/Jourgensen/Ward)
tabbed by Tom Mallon

Tune guitar and bass down 1/2 step (Eb, Ab, Db, Gb, Bb, Eb)

INTRO (BASS RIFF 1)
G |-----------------------------|
D |.---------------------------.| Bass
A |.----------------4----------.|
E |--0---3--4--5--------5---3---|

RIFF 1
A E G E G E
E |---5-5-5-5--------------------------|
B |---5-5-5-5--------------------------| Guitar
G |.--6-6-6-6-------------------------.|
D |.--7-7-7-7---------5-------5-------.|
A |---7-7-7-7---------5-------5--------|
E |---5-5-5-5-----0---3---0---3---0----|
| |
| |
G |------------------------------------|
D |.----------------------------------.| Bass
A |.---------3------------------------.|
E |---5---------5-----3---0---3---0----|


RIFF 2
D A C A C A
E |---5-5-5-5--------------------------|
B |---7-7-7-7--------------------------| Guitar
G |.--7-7-7-7---------5-------5-------.|
D |.--7-7-7-7---------5-------5-------.|
A |---5-5-5-5-----0---3---0---3---0----|
E |------------------------------------|
| |
| |
G |------------------------------------|
D |.---------3------------------------.| Bass
A |.--5---------5-----3---0---3---0---.|
E |------------------------------------|

RIFF 3
E |-------------------------------------------------------|
B |--9-9-9-9-9-9-9-9-9-9-9-9-9-9-8-8-7-7-7-7-7-7-7-7-7----| Guitar
G |--9-9-9-9-9-9-9-9-9-9-9-9-9-9-8-8-7-7-7-7-7-7-7-7-7----|
D |--9-9-9-9-9-9-9-9-9-9-9-9-9-9-8-8-7-7-7-7-7-7-7-7-7----|
A |--7-7-7-7-7-7-7-7-7-7-7-7-7-7-6-6-5-5-5-5-5-5-5-5-5----|
E |-------------------------------------------------------|
| |
| |
G |-------------------------------------------------------|
D |---------------5---------------------------------------| Bass
A |--7---7-7-7-7-----7--5-5----7--6--5-5-5-5-5-5-5-5-5----|
E |-------------------------------------------------------|

BASS RIFF 2
G |--------------------|
D |--------------------| Bass
A |---------3----------|
E |----3--------3-4-5--|

BRIDGE (RIFF 4)
G G# A pm.........................................
E |--3-3--4--5-----------------------------------------------|
B |--3-3--4--5-----------------------------------------------| Guitar
G |.-4-4--5--6-6-6-6-6-6-6-6-6-6-6-6-6-6-6-6-6-6-6-6-6-6-6--.|
D |.-5-5--6--7-7-7-7-7-7-7-7-7-7-7-7-7-7-7-7-7-7-7-7-7-7-7--.|
A |--5-5--6--7-7-7-7-7-7-7-7-7-7-7-7-7-7-7-7-7-7-7-7-7-7-7---|
E |--3-3--4--5-5-5-5-5-5-5-5-5-5-5-5-5-5-5-5-5-5-5-5-5-5-5---|
| |
| |
G |----------------------------------------------------------|
D |.--------------------------------------------------------.| Bass
A |.--------------------------------------------------------.|
E |--3-3--4--5-5-5-5-5-5-5-5-5-5-5-5-5-5-5-5-5-5-5-5-5-5-5---|

Songflow
Bass Riff 1 4x
Riff 1 12x
Riff 2 4x
Riff 1 4x
Riff 3 1x
Bass Riff 2 1x
Riff 1 12x
Riff 2 4x
Riff 1 4x
Riff 3 1x
Bass Riff 2 1x
Riff 1 8x
Riff 4 4x
Riff 1 24x (underneath solo)
Riff 2 4x
Riff 1 4x
Riff 3 2x
Bass Riff 2 1x
Riff 1 32x (add G and G# from Riff 4 in beginning every fourth time)

Like us on Facebook.....
-> Loading Time :0.0187 sec