Ham On the Bone Tabs & Lyrics by GWAR

Ham On the Bone

guitar tabs lyrics

GWAR

Album : America Must Be Destroyed hard rock PlayStop



-------------------------------------------------------------------------------
Ham on the Bone - Gwar
-------------------------------------------------------------------------------
Tabbed by: Carlsin Haayen
Email:

Tuning: Standard

Kickas song,

Intro/Main Riff - 5x
e|---------------------------------------------------------------------------------------|
B|---------------------------------------------------------------------------------------|
G|---------------------------------------------------------------------------------------|
D|-99999999-8----------------------------------------------------------------------------|
A|-77777777-6----------------------------------------------------------------------------|
E|---------------------------------------------------------------------------------------|


Chorus x2
e|---------------------------------------------------------|
B|---------------------------------------------------------|
G|---------------------------------------------------------|
D|-11-12----999999--12-11--999999---11-12--888888---12-11--|
A|-9-10-----777777--10-9---777777---9-10---666666---10-9---|
E|---------------------------------------------------------|


Main Riff x2

Chorus x2

Bridge 1 x4
e|--------------------------------------------------------------------------------------|
B|--------------------------------------------------------------------------------------|
G|--------------------------------------------------------------------------------------|
D|--------------------------------------------------------------------------------------|
A|-11-12-11-----------------------------------------------------------------------------|
E|-9-10-9-----32032---------------------------------------------------------------------|


Bridge 2(fast picking)
e|-----------------------------------------12-12-12-12-12-12-12-12-12-12-12~--|
B|----------------------------------------------------------------------------|
G|----------------------------------------------------------------------------|
D|----------------------------------------------------------------------------|
A|----------------------------------------------------------------------------|
E|-320320320320320320320------------------------------------------------------|


Main Riff x4

Chorus x2


Outro 1 x2 "Ham Ham Ham Ham!"
e|-----------------------------------|
B|-----------------------------------|
G|-----------------------------------|
D|-----------------------------------|
A|-9-9-9-9--8-----9-9-9-9--11-12-11--|
E|-7-7-7-7--6-----7-7-7-7--9-10-9----|


Outro 2
e|---------------------------------------------------------------------------------|
B|---------------------------------------------------------------------------------|
G|---------------------------------------------------------------------------------|
D|---------------------------------------------------------------------------------|
A|-9-8-9-9-------------------------------------------------------------------------|
E|-7-6-7-6-------------------------------------------------------------------------|


| / slide up
| \ slide down
| h hammer-on
| p pull-off
| ~ vibrato
| + harmonic
| x Mute note
================================================================

Like us on Facebook.....
-> Loading Time :0.0122 sec