Hail To England Tabs & Lyrics by Manowar

Hail To England

guitar tabs lyrics

Manowar

Album : Hail To England heavy metal PlayStop




HAIL TO ENGLAND
As recorded by Manowar
(From the 1984 Album HAIL TO ENGLAND)

Transcribed by David Harris


Words and Music by Manowar

Gtr I (E A D G B E) - 'Guitar 1 (left)'
Gtr II (E A D G B E) - 'Guitar 2 (right)'
Gtr III (E A D G B E) - 'Lead (solo)'
Gtr IV (E A D G B E) - 'Rhythm (under solo)'

Intro
Q=178
E5 D5 E5 D5 E5 D5 E5 D5 E5
6/8
Gtrs I, II
Q E E E a E Q E E E a E Q E E E a E Q E E E a E
|--------------|--------------|--------------|---------------|
|--------------|--------------|--------------|---------------|
|-9--9-7-7-7s9-|-9--9-7-7-7s9-|-9--9-7-7-7s9-|-9--9-7-7-7s9--|
|-9--9-7-7-7s9-|-9--9-7-7-7s9-|-9--9-7-7-7s9-|-9--9-7-7-7s9--|
|-7--7-5-5-5s7-|-7--7-5-5-5s7-|-7--7-5-5-5s7-|-7--7-5-5-5s7--|
|--------------|--------------|--------------|---------------|


C B A G A B
PM--------------------------------------------------|
E E E E E E E E E E E E E E E E E E E E E E E E
|-------------|-------------|-------------|-------------|
|-------------|-------------|-------------|-------------|
|-------------|-------------|-------------|-------------|
|-------------|-------------|-------------|-------------|
|-------------|-------------|-------------|-------------|
|-8-8-8-8-7-5-|-3-3-3-3-2-3-|-5-5-5-5-3-5-|-7-7-7-7-5-7-|


E5 D5 E5 D5 E5 D5 E5 D5 E5
Q E E E a E Q E E E a E Q E E E a E Q E E E a E
||---------------|--------------|--------------|---------------|
||o--------------|--------------|--------------|---------------|
||--9--9-7-7-7s9-|-9--9-7-7-7s9-|-9--9-7-7-7s9-|-9--9-7-7-7s9--|
||--9--9-7-7-7s9-|-9--9-7-7-7s9-|-9--9-7-7-7s9-|-9--9-7-7-7s9--|
||o-7--7-5-5-5s7-|-7--7-5-5-5s7-|-7--7-5-5-5s7-|-7--7-5-5-5s7--|
||---------------|--------------|--------------|---------------|


Verse
C B A G A B
PM--------------------------------------------------|
E E E E E E E E E E E E E E E E E E E E E E E E
||--------------|-------------|-------------|--------------|
||o-------------|-------------|-------------|--------------|
||--------------|-------------|-------------|--------------|
||--------------|-------------|-------------|--------------|
||o-------------|-------------|-------------|--------------|
||--8-8-8-8-7-5-|-3-3-3-3-2-3-|-5-5-5-5-3-5-|-7-7-7-7-5-7--|


E5 D5 E5 D5 E5 D5 E5 D5 E5
Q E E E a E Q E E E a E Q E E E a E Q E E E a E 3x
|--------------|--------------|--------------|---------------||
|--------------|--------------|--------------|--------------o||
|-9--9-7-7-7s9-|-9--9-7-7-7s9-|-9--9-7-7-7s9-|-9--9-7-7-7s9--||
|-9--9-7-7-7s9-|-9--9-7-7-7s9-|-9--9-7-7-7s9-|-9--9-7-7-7s9--||
|-7--7-5-5-5s7-|-7--7-5-5-5s7-|-7--7-5-5-5s7-|-7--7-5-5-5s7-o||
|--------------|--------------|--------------|---------------||


C B A G A B
PM--------------------------------------------------|
E E E E E E E E E E E E E E E E E E E E E E E E
|-------------|-------------|-------------|-------------|
|-------------|-------------|-------------|-------------|
|-------------|-------------|-------------|-------------|
|-------------|-------------|-------------|-------------|
|-------------|-------------|-------------|-------------|
|-8-8-8-8-7-5-|-3-3-3-3-2-3-|-5-5-5-5-3-5-|-7-7-7-7-5-7-|


Pre-Chorus
A5 B5 E5 A5 D5
H E E Q. Q. H. +H. H E E Q. Q.
|--------------|-----------|---------|----------|--------------|-----------|
|--------------|-----------|---------|----------|--------------|-----------|
|-2----(2)-(2)-|-2----4----|---------|----------|-2----(2)-(2)-|-2----7----|
|-2----(2)-(2)-|-2----4----|-2-------|-(2)------|-2----(2)-(2)-|-2----7----|
|-0-----0---0--|-0----2----|-2-------|-(2)------|-0-----0---0--|-0----5----|
|--------------|-----------|-0-------|-(0)------|--------------|-----------|


E5 A5 B5 E5
H. +H. H E E Q. Q. H. +H.
|---------|----------|--------------|-----------|---------|--------|
|---------|----------|--------------|-----------|---------|--------|
|---------|----------|-2----(2)-(2)-|-2----4----|---------|--------|
|-2-------|-(2)------|-2----(2)-(2)-|-2----4----|-2-------|-(2)----|
|-2-------|-(2)------|-0-----0---0--|-0----2----|-2-------|-(2)----|
|-0-------|-(0)------|--------------|-----------|-0-------|-(0)----|


D5 D5/Db C5 C5/B Bb5
H. H. H. H. H.
||----------|---------|---------|---------|---------|
||o---------|---------|---------|---------|---------|
||--7-------|-7-------|-5-------|-5-------|-3-------|
||--7-------|-7-------|-5-------|-5-------|-3-------|
||o-5-------|-4-------|-3-------|-2-------|-1-------|
||----------|---------|---------|---------|---------|


A5 G5
H. q. Q. E E E E E E
|---------|-----------|-------------------------||
|---------|-----------|------------------------o||
|-2-------|-----------|-------------------------||
|-2-------|-5----5----|-/12-12-12-12-12-12\-----||
|-0-------|-5----5----|-/10-10-10-10-10-10\----o||
|---------|-3----3----|-------------------------||


Chorus
F5 E5 D5
PM--| PM| PM| PM| PM|
q. E E E H E E H E E E E E E E E 3x
||-------------|----------|----------|---------------||
||o------------|----------|----------|--------------o||
||-------------|----------|-7--------|-7-----7-------||
||--3----------|-2--------|-7--------|-7-----7-------||
||o-3----3-3-3-|-2----2-2-|-5----5-5-|-5-5-5-5-5-5--o||
||--1----1-1-1-|-0----0-0-|----------|---------------||


F5 E5 D5
PM--| PM|
q. E E E H E E H +E E
|------------|----------|--------------||
|------------|----------|-------------o||
|------------|----------|-7----(7)-----||
|-3----------|-2--------|-7----(7)-----||
|-3----3-3-3-|-2----2-2-|-5----(5)----o||
|-1----1-1-1-|-0----0-0-|----------7\--||


Guitar Solo
E5 D5 E5 D5 E5 D5 E5 D5 E5
Gtr III
~~ ~~~~~~~~~~~~~~~~~~~~~~~~~~~~~~~~~~~~~~~~
H. a Q. Q. H. +H.
|---------------|--------------------|----------------|-----------------|
|---------------|--------------------|----------------|-----------------|
|---------------|--------------------|----------------|-----------------|
|---------------|--------------------|-/9-------------|-(9)-------------|
|-7-------------|-7h9-----/10--------|----------------|-----------------|
|---------------|--------------------|----------------|-----------------|
|
| Gtr IV
| Q E E E a E Q E E E a E Q E E E a E Q E E E a E
|---------------|--------------------|----------------|-----------------|
|---------------|--------------------|----------------|-----------------|
|-9---9-7-7-7s9-|---9---9---7--7-7s9-|--9---9-7-7-7s9-|--9---9-7-7-7s9--|
|-9---9-7-7-7s9-|---9---9---7--7-7s9-|--9---9-7-7-7s9-|--9---9-7-7-7s9--|
|-7---7-5-5-5s7-|---7---7---5--5-5s7-|--7---7-5-5-5s7-|--7---7-5-5-5s7--|
|---------------|--------------------|----------------|-----------------|


C B A G
~~ ~~
H E E H E E
|----------------|----------------|
|----------10h12-|----------------|
|-12-------------|-12-------12p11-|
|----------------|----------------|
|----------------|----------------|
|----------------|----------------|
|
| PM------------------------------
| E E E E E E E E E E E E
|----------------|----------------|
|----------------|----------------|
|----------------|----------------|
|----------------|----------------|
|----------------|----------------|
|--8-8-8-8--7--5-|--3-3-3-3--2--3-|


A B
~~~
E S S S S S S S S S S E E E Q.
|----------------------------------|-------------------|
|----------------------------------|-------------------|
|-12p11h12p11h12p11h12p11h12p11h12p|=11h12p11----------|
|----------------------------------|----------14-------|
|----------------------------------|-------------------|
|----------------------------------|-------------------|
|
|---------------------------------------------------|
| E E E E E E E E E E E E
|----------------------------------|-------------------|
|----------------------------------|-------------------|
|----------------------------------|-------------------|
|----------------------------------|-------------------|
|----------------------------------|-------------------|
|--5--5-----5-----5-----3-----5----|--7--7--7--7--5-7--|


E5 D5 E5 D5 E5 D5 E5 D5 E5
~~~~~~~~~~~~~~~~~~~~
H. a Q. Q. H. +H.
|---------------|-------------------|----------------|-----------------|
|---------------|-------------------|----------------|-----------------|
|---------------|-------------------|----------------|-----------------|
|---------------|-------------------|----------------|-----------------|
|---------------|-------------------|-/7-------------|-(7)-------------|
|-0-------------|-0h2-----/7--------|----------------|-----------------|
|
| Q E E E a E Q E E E a E Q E E E a E Q E E E a E
|---------------|-------------------|----------------|-----------------|
|---------------|-------------------|----------------|-----------------|
|-9---9-7-7-7s9-|---9---9--7--7-7s9-|--9---9-7-7-7s9-|--9---9-7-7-7s9--|
|-9---9-7-7-7s9-|---9---9--7--7-7s9-|--9---9-7-7-7s9-|--9---9-7-7-7s9--|
|-7---7-5-5-5s7-|---7---7--5--5-5s7-|--7---7-5-5-5s7-|--7---7-5-5-5s7--|
|---------------|-------------------|----------------|-----------------|


C B A G
H +E E E E E E E E
|--------------------------|-12----12--------------|
|-15b17========(15)r-15b17-|----15----15pb17r12----|
|--------------------------|--------------------14-|
|--------------------------|-----------------------|
|--------------------------|-----------------------|
|--------------------------|-----------------------|
|
| PM-----------------------------------------------
| E E E E E E E E E E E E
|--------------------------|-----------------------|
|--------------------------|-----------------------|
|--------------------------|-----------------------|
|--------------------------|-----------------------|
|--------------------------|-----------------------|
|--8-----8-8-8---7----5----|--3--3--3--3------2--3-|


A B
~~~
E E E E E E H.
|----------------------|---------------|
|-12-------------------|---------------|
|----14-12-14b16r14-12-|---------------|
|----------------------|-14------------|
|----------------------|---------------|
|----------------------|---------------|
|
|------------------------------------|
| E E E E E E E E E E E E
|----------------------|---------------|
|----------------------|---------------|
|----------------------|---------------|
|----------------------|---------------|
|----------------------|---------------|
|--5--5--5--5-----3--5-|--7--7-7-7-5-7-|


E5 D5 E5 D5 E5 D5 E5 D5 E5
~~~~~~~~~~~~~~~~~~~~~~~~~~~~~~~~~~~~~~~~~~~~~~~~~~~~~~~~~
H. Q. Q. H. +H.
|-12-------------|-14-----15--------|-19-------------|-(19)------------|
|----------------|------------------|----------------|-----------------|
|----------------|------------------|----------------|-----------------|
|----------------|------------------|----------------|-----------------|
|----------------|------------------|----------------|-----------------|
|----------------|------------------|----------------|-----------------|
|
| Q E E E a E Q E E E a E Q E E E a E Q E E E a E
|----------------|------------------|----------------|-----------------|
|----------------|------------------|----------------|-----------------|
|--9---9-7-7-7s9-|--9---9--7--7-7s9-|--9---9-7-7-7s9-|---9---9-7-7-7s9-|
|--9---9-7-7-7s9-|--9---9--7--7-7s9-|--9---9-7-7-7s9-|---9---9-7-7-7s9-|
|--7---7-5-5-5s7-|--7---7--5--5-5s7-|--7---7-5-5-5s7-|---7---7-5-5-5s7-|
|----------------|------------------|----------------|-----------------|


C B A G
S S S S S S S S S S S S S S S S S S S S S S S S
|-------------------------------------|-------------------------------------|
|-15-12-15-12-------------------------|-------------------------------------|
|-------------14-11-14----------------|-------------------------------------|
|----------------------12-14-12-------|----------------------------------12-|
|-------------------------------15-14-|-12----------------12-14-15-14-15----|
|-------------------------------------|----15-13-12-13-15-------------------|
|
| PM------------------------------------------------------------------------
| E E E E E E E E E E E E
|-------------------------------------|-------------------------------------|
|-------------------------------------|-------------------------------------|
|-------------------------------------|-------------------------------------|
|-------------------------------------|-------------------------------------|
|-------------------------------------|-------------------------------------|
|--8-----8-----8-----8-----7-----5----|--3-----3-----3-----3-----2-----3----|


A B
S S S S S S S S S S S S S S S S S S S S S S S S
|-------------------------------------|----------------------------------------|
|-------------------------------------|-------------12-13-15-12-13-15-12-15----|
|----------------------------------14-|-11-14-11-14----------------------------|
|-14-12-14----------12-14-12-14-12----|----------------------------------------|
|----------15-14-15-------------------|----------------------------------------|
|-------------------------------------|----------------------------------------|
|
|---------------------------------------------------------------------|
| E E E E E E E E E E E E
|-------------------------------------|----------------------------------------|
|-------------------------------------|----------------------------------------|
|-------------------------------------|----------------------------------------|
|-------------------------------------|----------------------------------------|
|-------------------------------------|----------------------------------------|
|--5-----5-----5-----5-----3-----5----|--7-----7-----7-----7-----5-----7-------|


E5 D5 E5 D5 E5
S S S S S S S S S S S S S S S S S S S S S S S S
|-15p12-------15p12-------15p12---------|-15p12-------15p12-------15p12---------|
|-------12h15-------12h15---------12h15-|-------12h15-------12h15---------12h15-|
|---------------------------------------|---------------------------------------|
|---------------------------------------|---------------------------------------|
|---------------------------------------|---------------------------------------|
|---------------------------------------|---------------------------------------|
|
| Q E E E a E Q E E E a E
|---------------------------------------|---------------------------------------|
|---------------------------------------|---------------------------------------|
|--9-----------9-----7-----7----7s=9----|--9-----------9-----7-----7----7s=9----|
|--9-----------9-----7-----7----7s=9----|--9-----------9-----7-----7----7s=9----|
|--7-----------7-----5-----5----5s=7----|--7-----------7-----5-----5----5s=7----|
|---------------------------------------|---------------------------------------|


D5 E5 D5 E5
~~~~~~
Q +H H.
|-15b17===(15)r========|=17b19==============|
|----------------------|--------------------|
|----------------------|--------------------|
|----------------------|--------------------|
|----------------------|--------------------|
|----------------------|--------------------|
|
| Q E E E a E Q E E E a E
|----------------------|--------------------|
|----------------------|--------------------|
|--9--------9--7-7-7s9-|--9------9-7-7-7s9--|
|--9--------9--7-7-7s9-|--9------9-7-7-7s9--|
|--7--------7--5-5-5s7-|--7------7-5-5-5s7--|
|----------------------|--------------------|


C B B G
~~~
Q E E E E H E E
|-17r==15-17-19-15-|----------15----|
|------------------|-17----------17-|
|------------------|----------------|
|------------------|----------------|
|------------------|----------------|
|------------------|----------------|
|
| PM--------------------------------
| E E E E E E E E E E E E
|------------------|----------------|
|------------------|----------------|
|------------------|----------------|
|------------------|----------------|
|------------------|----------------|
|--8-8--8--8--7--5-|--3-3-3-3--2--3-|


A B
~~~~~~~~~~~~~~~
E S S S S E Q +H.
|-14-15p14h15p14-------------|----------------|
|----------------17-17pb19r==|=(17)-----------|
|----------------------------|----------------|
|----------------------------|----------------|
|----------------------------|----------------|
|----------------------------|----------------|
|
|-------------------------------------------|
| E E E E E E E E E E E E
|----------------------------|----------------|
|----------------------------|----------------|
|----------------------------|----------------|
|----------------------------|----------------|
|----------------------------|----------------|
|--5--5-----5-----5--3-----5-|---7--7-7-7-5-7-|


Pre-Chorus 3
A5 B5 E5
\1/
Q H +H +E +E +H.
|----0----------|-(0)------(0)-(0)--|-(0)------|
|-0-------------|-------------------|----------|
|---------------|-------------------|----------|
|---------------|-------------------|----------|
|---------------|-------------------|----------|
|---------------|-------------------|----------|
|
| H E E Q. Q. H.
|---------------|-------------------|----------|
|---------------|-------------------|----------|
|-2-----(2)-(2)-|--2----4-----------|----------|
|-2-----(2)-(2)-|--2----4-----------|--2-------|
|-0------0---0--|--0----2-----------|--2-------|
|---------------|-------------------|--0-------|


A5 D5
H. +H. +H.
|-([0])------|-([0])------------|-([0])--------|
|-(17)-------|-(17)-------------|-(17)---------|
|------------|------------------|--------------|
|------------|------------------|--------------|
|------------|------------------|--------------|
|------------|------------------|--------------|
|
| +H. H E E Q. Q.
|------------|------------------|--------------|
|------------|------------------|--------------|
|------------|---2------(2)-(2)-|---2-----7----|
|--(2)-------|---2------(2)-(2)-|---2-----7----|
|--(2)-------|---0-------0---0--|---0-----5----|
|--(0)-------|------------------|--------------|


E5
\1/
+H. +H +E +E
|-([0])------|-([0])----([0])-([0])-|
|-(17)-------|-(17)-----(17)--(17)--|
|------------|----------------------|
|------------|----------------------|
|------------|----------------------|
|------------|----------------------|
|
| H. +H.
|------------|----------------------|
|------------|----------------------|
|------------|----------------------|
|---2--------|--(2)-----------------|
|---2--------|--(2)-----------------|
|---0--------|--(0)-----------------|


A5 B5 E5
~~~~~~~~~~~~~~~~~~~~~
H. +H. H. H.
|-12-------------|-(12)--------|-15-------|-14-----|
|----------------|-------------|----------|--------|
|----------------|-------------|----------|--------|
|----------------|-------------|----------|--------|
|----------------|-------------|----------|--------|
|----------------|-------------|----------|--------|
|
| H E E Q. Q. H. +H.
|----------------|-------------|----------|--------|
|----------------|-------------|----------|--------|
|--2-----(2)-(2)-|---2----4----|----------|--------|
|--2-----(2)-(2)-|---2----4----|--2-------|-(2)----|
|--0------0---0--|---0----2----|--2-------|-(2)----|
|----------------|-------------|--0-------|-(0)----|


Q=145
D5 D5/Db C5 C5/B
Gtr I
H E E H E E H E E H E E
||------------|-----------|-----------|-----------|
||o-----------|-----------|-----------|-----------|
||--7---------|-7---------|-5---------|-5---------|
||--7-----7-7-|-7-----7-7-|-5-----5-5-|-5-----5-5-|
||o-5-----5-5-|-4-----4-4-|-3-----3-3-|-2-----2-2-|
||------------|-----------|-----------|-----------|
|
| Gtr II
| H. H. H. H.
||------------|-----------|-----------|-----------|
||o-----------|-----------|-----------|-----------|
||--7---------|-7---------|-5---------|-5---------|
||--7---------|-7---------|-5---------|-5---------|
||o-5---------|-4---------|-3---------|-2---------|
||------------|-----------|-----------|-----------|


Bb5 A5 G5
PM------------|
H. H. q. Q. E E E E E E
|---------|---------|-----------|-------------------------||
|---------|---------|-----------|------------------------o||
|-3-------|-2-------|-----------|-------------------------||
|-3-------|-2-------|-5----5----|-------------------------||
|-1-------|-0-------|-5----5----|---5--5--5--5--5--5-----o||
|---------|---------|-3----3----|---3--3--3--3--3--3------||
|
| H. H. q. Q. E E E E E E
|---------|---------|-----------|-------------------------||
|---------|---------|-----------|------------------------o||
|-3-------|-2-------|-----------|-------------------------||
|-3-------|-2-------|-5----5----|-/12-12-12-12-12-12\-----||
|-1-------|-0-------|-5----5----|-/10-10-10-10-10-10\----o||
|---------|---------|-3----3----|-------------------------||


H.=H
F5 E5 D5
Gtrs I, II
PM--| PM| PM| PM| PM|
q. E E E H E E H E E E E E E E E 3x
||-------------|----------|----------|---------------||
||o------------|----------|----------|--------------o||
||-------------|----------|-7--------|-7-----7-------||
||--3----------|-2--------|-7--------|-7-----7-------||
||o-3----3-3-3-|-2----2-2-|-5----5-5-|-5-5-5-5-5-5--o||
||--1----1-1-1-|-0----0-0-|----------|---------------||


F
H. +H. +H.
|---------|----------|--------|
|---------|----------|--------|
|---------|----------|--------|
|-3-------|-(3)------|-(3)----|
|-3-------|-(3)------|-(3)----|
|-1-------|-(1)------|-(1)----|


E5
H. +H. +H. +H.
|---------|----------|----------|--------|
|---------|----------|----------|--------|
|---------|----------|----------|--------|
|-2-------|-(2)------|-(2)------|-(2)----|
|-2-------|-(2)------|-(2)------|-(2)----|
|-0-------|-(0)------|-(0)------|-(0)----|


Q=145
D5
TP TP TP TP
H. H. +H. +H. +H.
|---------|---------|----------|----------|--------|
|---------|---------|----------|----------|--------|
|-7-------|-7-------|-(7)------|-(7)------|-(7)----|
|-7-------|-7-------|-(7)------|-(7)------|-(7)----|
|-5-------|-5-------|-(5)------|-(5)------|-(5)----|
|---------|---------|----------|----------|--------|


TP TP
+H. +H Q +Q. Q E +E H E
|----------|-----------|------------|------------------*|
|----------|-----------|------------|------------------*|
|-(7)------|-(7)----7--|-(7)------7-|-(7)\-------------*|
|-(7)------|-(7)----7--|-(7)---5--7-|-(7)\-------------*|
|-(5)------|-(5)----5--|-(5)---5--5-|-(5)\-------------*|
|----------|-----------|-------3----|------------------*|



Duration Legend
---------------
W - whole; H - half; Q - quarter; E - 8th; S - 16th; T - 32nd; X - 64th; a - acciaccatura
+ - note tied to previous; . - note dotted; .. - note double dotted
Uncapitalized letters represent notes that are staccato (1/2 duration)
Irregular groupings are notated above the duration line
Duration letters will always appear directly above the note/fret number it represents the
duration for. Duration letters with no fret number below them represent rests. Multi-
bar rests are notated in the form Wxn, where n is the number of bars to rest for. Low
melody durations appear below the staff

Tablature Legend
----------------
h - hammer-on
p - pull-off
b - bend
pb - pre-bend
r - bend release (if no number after the r, then release immediately)
/\ - slide into or out of (from/to "nowhere")
s - legato slide
S - shift slide
- natural harmonic
[n] - artificial harmonic
n(n) - tapped harmonic
~ - vibrato
tr - trill
T - tap
TP - trem. picking
PM - palm muting
\n/ - tremolo bar dip; n = amount to dip
\n - tremolo bar down
n/ - tremolo bar up
/n\ - tremolo bar inverted dip
= - hold bend; also acts as connecting device for hammers/pulls
- volume swell (louder/softer)
x - on rhythm slash represents muted slash
o - on rhythm slash represents single note slash

Misc Legend
-----------
| - bar
|| - double bar
||o - repeat start
o|| - repeat end
*| - double bar (ending)
: - bar (freetime)
$ - Segno
& - Coda
Tempo markers - = BPM(8/16=s8/s16), where s8 = swing 8ths, s16 = swing 16ths



Like us on Facebook.....
-> Loading Time :0.0329 sec