Glitch Tabs & Lyrics by Blind Melon

Glitch

guitar tabs lyrics

Blind Melon

Album : Nico 1996 PlayStop



-------------------------------------------------------------------------------
GLITCH- Blind Melon
-------------------------------------------------------------------------------
Tabbed by: Patrick
Email: mrpetetownsend@yahoo.com

Tuning: standard

e|---------------------------------------------------------------------------|
B|----------------------8\6/8\6----------------------------------------------|

G|-----2-h-3-p-2-/-7----7\5/7\5----------------------------------------------|
D|-----0---0---0---0----0-0-0-0----------------------------------------------|
A|-----0---0---0---0---------------------------------------------------------|
E|---------------------------------------------------------------------------|


During the slide part, you kind of slide and strum at the same time. Rinse and repeat throughout the song.


| / slide up
| \ slide down
| h hammer-on
| p pull-off
| ~ vibrato
| + harmonic
| x Mute note
===============================================================================


Like us on Facebook.....
-> Loading Time :0.0365 sec