Getting Thru? Tabs & Lyrics by Fuel

Getting Thru?

guitar tabs lyrics

Fuel

Album : Natural Selection albums i own PlayStop



Artist: Fuel
Song: Getting Thru?
Album: Natural Selection
Tabbed by Timothy Maxwell (email: timmax9@hotmail.com)

Tuned down 2 whole steps in dropped-C tuning: (C G C F A D)

CHORDS:
D5: 000XXX
C5: 10-10-10-X-X-X

Bb5: 888XXX
F5: 3335XX
G5: 5557XX
C#5: 11-11-11-X-X-X
Eb5: 111XXX

INTRO: (0:00)
N.C. (D5)
|--------------------|------------------------|
|--------------------|------------------------|
|---5-7-4------------|---5-7-4---7------------|
|--------------------|---------3--------------|
|--------------------|------------------------|
|-0------------------|-0----------------------|

D5 C5 D5 Bb5 C5 D5 C5 D5 P.M..
|------------------------------------------------------|
|------------------------------------------------------|
|------------------------------------------------------|
|-0-0---0-10-12---8-8-10---0-0---0-10-12---0-0-0-------|
|-0-0---0-10-12---8-8-10---0-0---0-10-12---0-0-0---3v~-|
|-0-0---0-10-12---8-8-10---0-0---0-10-12---0-0-0-------| 2X

3rd time (w/gtr. 1 playing chord structures)
D5 C5 D5 Bb5 C5 D5 C5 D5
|------------------------------------------------------|
|-10-10-10b-(10)--11-13-10-10-10b-(10)---(10)---(10)---|
|------------------------------------------------------|
|------------------------------------------------------|
|------------------------------------------------------|
|------------------------------------------------------| 2X

VERSE 1: (w/gtr. 2 playing fig. 1) (0:31)
D5 C5 D5 C5
I gave you all (my pride) all my soul
D5 C5 D5
You gave it all away
D5 C5 D5 C5
You tried so hard (to blame) tried to blame
D5 C5 D5
There's no more words to say

[Fig. 1]
D5 H . C5
|-------------------|
|-------------------|
|------5-5----------|
|-------------------|
|-------------------|
|-------------------|

PRE-CHORUS: (0:51)
Bb5 C5
Got no alibis, now you're out of lies

CHORUS: (1:02)
D5 F5 G5
Am I getting through to you?
D5 F5 G5
How much more should I define?
D5 F5 G5
Never more to be your fool
D5 F5 G5
Am I getting through to you?

(1:22)
D5 C5 D5 Bb5 C5 D5 C5 D5 P.M..
|------------------------------------------------------|
|------------------------------------------------------|
|------------------------------------------------------|
|-0-0---0-10-12---8-8-10---0-0---0-10-12---0-0-0-------|
|-0-0---0-10-12---8-8-10---0-0---0-10-12---0-0-0---3v~-|
|-0-0---0-10-12---8-8-10---0-0---0-10-12---0-0-0-------|
|
| Gtr. 2
|------------------------------------------------------|
|-10-10-10b-(10)--11-13-10-10-10b-(10)---(10)---(10)---|
|------------------------------------------------------|
|------------------------------------------------------|
|------------------------------------------------------|
|------------------------------------------------------| 2X

VERSE 1: (w/gtr. 2 playing fig. 1) (1:32)
D5 C5 D5 C5
I tried so hard to shake it off
D5 C5 D5
You threw it in my face
D5 C5 D5 C5
Under your skin, your wicked ways
D5 C5 D5
The sweetness I can't taste

PRE-CHORUS: (1:52)
Bb5 C5
All that you provide, all that you disguise

(CHORUS) (2:02)

BRIDGE: (2:22)
Bb5 C5 G5
If you call know I'll be there
Bb5 C5 C#5
Tripping on your wire, fall right back into your hand

INTERLUDE: (2:40)
D5 Eb5 D5 Eb5

D5 Eb5 D5 Eb55
Yeah,_______ Yeah,______
D5 Eb5 D5(HOLD)
Yeah,_______

GUITAR SOLO: (2:53)
D5 F5 G5 D5 F5 G5
|-----------------|-------------------------------------|
|-/13---12---10---|------------13-12--------------------|
|-----------------|-12-11-9-7--------11b-(11)-(11)-(11)-|
|-----------------|-------------------------------------|
|-----------------|-------------------------------------|
|-----------------|-------------------------------------|

(CHORUS 2X) (3:03)

OUTRO: (3:43)
D5 C5 D5 Bb5 C5 D5 C5 D5 P.M..
|------------------------------------------------------|
|------------------------------------------------------|
|------------------------------------------------------|
|-0-0---0-10-12---8-8-10---0-0---0-10-12---0-0-0-------|
|-0-0---0-10-12---8-8-10---0-0---0-10-12---0-0-0---3v~-|
|-0-0---0-10-12---8-8-10---0-0---0-10-12---0-0-0-------|
|
| Gtr. 2
|------------------------------------------------------|
|-10-10-10b-(10)--11-13-10-10-10b-(10)---(10)---(10)---|
|------------------------------------------------------|
|------------------------------------------------------|
|------------------------------------------------------|
|------------------------------------------------------| 3X

D5 C5 D5 Bb5 C5 D5 C5 D5(HOLD)
|------------------------------------------------------|
|------------------------------------------------------|
|------------------------------------------------------|
|-0-0---0-10-12---8-8-10---0-0---0-10-12---------------|
|-0-0---0-10-12---8-8-10---0-0---0-10-12---------------|
|-0-0---0-10-12---8-8-10---0-0---0-10-12---------------|
|
| Gtr. 2
|------------------------------------------------------|
|-10-10-10b-(10)--11-13-10-10-10b-(10)---(10)---(10)---|
|------------------------------------------------------|
|------------------------------------------------------|
|------------------------------------------------------|
|------------------------------------------------------|

Like us on Facebook.....
-> Loading Time :0.0146 sec