Fun Tabs & Lyrics by Pulley

Fun

guitar tabs lyrics

Pulley

Album : Short Music for Short PeoplePlayStop



FUN - Pulley

By:Yasushi; [email protected]

e|--------------------------------------------------------------|
B|--------------------------------------------------------------|
G|--------------5-----7--------5-----7-----------5-----5-----7--|
D|--5-----2-----5-----7--}x2---5-----7-----5-----5-----5-----7--|
A|--5-----2-----3-----5--------3-----5-----5-----3-----3-----5--|
E|--3-----0--------------------------------3--------------------|


e|-----|-----|-----|-----|-----|-----|-------------------|
B|-----|-----|-----|-----|-----|-----|-------------------|
G|-----|--4--|--5--|-----|-----|-----|--7----------------|
D|--5--|--4--|--5--|--7--|--5--|--2--|--7--|
A|--5--|--2--|--3--|--7--|--5--|--2--|--5----------------|
E|--3--|-----|-----|--5--|--3--|--0--|-------------------|

e|----------------------------------------------------------------------|
B|----------------------------------------------------------------------|
G|--------------5-----7--------5-----7-----------5-----5-----7---[end]--|
D|--5-----2-----5-----7--}x2---5-----7-----5-----5-----5-----7-----5----|
A|--5-----2-----3-----5--------3-----5-----5-----3-----3-----5-----5----|
E|--3-----0--------------------------------3-----------------------3----|

HAVE FUN!

Like us on Facebook.....
-> Loading Time :0.0091 sec