Forkboy Tabs & Lyrics by Lard

Forkboy

guitar tabs lyrics

Lard

Album : The Last Temptation of Reid industrial punk PlayStop



Date: Wed, 19 Jul 1995 13:15:12 -0600 (MDT)
From: Jeff Mutt
Subject: Forkboy by Lard

Forkboy

e------------------------------------------------------------------------------|
B------------------------------------------------------------------------------|
G------------------------------------------------------------------------------|
D--77/9--77/9--77/9--77/10/9--77/9--77/9--77/9---------------------------------|

A--55/7--55/7--55/7--55/-8/7--55/7--55/7--55/7--7--5---------------------------|
E-----------------------------------------------5--3---------------------------|

e------------------------------------------------------------------------------|
B------------------------------------------------------------------------------|
G------------------------------------------------------------------------------|
D---9999-10101010-11-11-11-11-12-12-11-11--and repeats for a bit---------------|
A---7777--8-8-8-8--9--9--9--9-10-10--9--9--------------------------------------|
E------------------------------------------------------------------------------|


And then theres a small part which I guess could be a bridge
e------------------------------------------------------------------------|
B------------------------------------------------------------------------|
G------------------------------------------------------------------------|
D--77/9-9---7-7/9-9----etc-----------------------------------------------|
A--55/7-7---5-5/7-7------------------------------------------------------|

theres the whole song (as I play it)
transcribed by rambozo jjm@nucleus.com

Like us on Facebook.....
-> Loading Time :0.0047 sec