Equally Stupid Tabs & Lyrics by Unwound

Equally Stupid

guitar tabs lyrics

Unwound

Album : The Future of What post-hardcore PlayStop



Unwound - Equally stupid

|-------------| One bar intro
|-------------|
|---0-------0-|
|-----5---5---|
|-7-----7-----|
|-------------|

|----------------------|

|----8-----------8-----|
|----0-----------0-----|
|-------5-----5--------|
|-7--------7-----------|
|----------------------|

|-----------------------------------|
|------0-------0--------------------|
|---5--4----2--2--------2--------0--|
|--------------------3-----------5--|
|-2------2--------------------------|
|-----------------1--------1--3-----|

|--------------0--|Play this on the
|----0-0-0-----0--|last bar, before
|-----------2--2--|the 3/4 bit.
|-----------------|
|-2---------------|
|-----------------|

|--------------------------1-3-1-|
|--------------2-2-2-2-2-2-------|
|-3-3-3-3-3-3--------------------|
|--------------2-2-2-2-2-2-------|
|-5-5-5-5-5-5--2-2-2-2-2-2-------|
|-3-3-3-3-3-3--0-0-0-0-0-0-------|

|------13---------15-------------|
|-/10--10---------12-------------|
|--0--------------0--------------|
|--------------------------------|
|--------------------------------|
|--------------------------------|

|-------------5-----|
|-------------------| Very last bar.
|---0-----0---0-----|
|---5-----5---5-----|
|-4-----3-----------|
|-------------3-----|

Like us on Facebook.....
-> Loading Time :0.0063 sec