Drink Drank Punk Tabs & Lyrics by Anti-Flag

Drink Drank Punk

guitar tabs lyrics

Anti-Flag

Album : Die for the Government punk PlayStop



Anti-Flag..Drink, Drank punk
/-no ring(stop right away)

e-------------------------------------------------------------
B-------------------------------------------------------------
G---------6-6-6-6---------6-6-6-6---------6-6-6-6---------6---
D-6-6-6-6-6-6-6-6-6-6-6-6-6-6-6-6-6-6-6-6-6-6-6-6-6-6-6-6-6--- (INTRO)
A-6-6-6-6-4-4-4-4-6-6-6-6-4-4-4-4-6-6-6-6-4-4-4-4-6-6-6-6-4---
E-4-4-4-4---------4-4-4-4---------4-4-4-4---------4-4-4-4-----

e----------/----------/----------/-----------
B----------/----------/----------/-----------
G---------6/---------6/---------6/---------6-
D-6-6-6-6-6/-6-6-6-6-6/-6-6-6-6-6/-6-6-6-6-6-
A-6-6-6-6-4/-6-6-6-6-4/-6-6-6-6-4/-6-6-6-6-4-
E-4-4-4-4--/-4-4-4-4--/-4-4-4-4--/-4-4-4-4---
i want drink more until pukeeee
to beer i

e-------------------------------------------------------------
B-------------------------------------------------------------
G---------6-6-6-6---------6-6-6-6---------6-6-6-6---------6---
D-6-6-6-6-6-6-6-6-6-6-6-6-6-6-6-6-6-6-6-6-6-6-6-6-6-6-6-6-6---
A-6-6-6-6-4-4-4-4-6-6-6-6-4-4-4-4-6-6-6-6-4-4-4-4-6-6-6-6-4---
E-4-4-4-4---------4-4-4-4---------4-4-4-4---------4-4-4-4-----
drink drank punk,drink drank punk,drink drank punk,drinkdrank punk

e----------/----------/----------/-----------
B----------/----------/----------/-----------
G---------6/---------6/---------6/---------6-
D-6-6-6-6-6/-6-6-6-6-6/-6-6-6-6-6/-6-6-6-6-6-
A-6-6-6-6-4/-6-6-6-6-4/-6-6-6-6-4/-6-6-6-6-4-
E-4-4-4-4--/-4-4-4-4--/-4-4-4-4--/-4-4-4-4---
im so if i can i can more than
cool drink so mutch drink you


e-------------------------------------------------------------
B-------------------------------------------------------------
G---------6-6-6-6---------6-6-6-6---------6-6-6-6---------6---
D-6-6-6-6-6-6-6-6-6-6-6-6-6-6-6-6-6-6-6-6-6-6-6-6-6-6-6-6-6---
A-6-6-6-6-4-4-4-4-6-6-6-6-4-4-4-4-6-6-6-6-4-4-4-4-6-6-6-6-4---
E-4-4-4-4---------4-4-4-4---------4-4-4-4---------4-4-4-4-----
drink drank punk,drink drank punk,drink drank punk,drinkdrank punk

e------------------------------------------
B------------------------------------------
G------------------------------------------
D-4-4-4-4-4-4-6-6-6-6-6-6-8-8-8-8-8-8-8-8--(2x) ANY YOU SHOULD KNOW
A-2-2-2-2-2-2-4-4-4-4-4-4-6-6-6-6-6-6-6-6-- THE REST OF THE SONG WORDS,
E------------------------------------------ ITS PIRFICLY TAB OUT

e----------/----------/----------/-----------
B----------/----------/----------/-----------
G---------6/---------6/---------6/---------6-
D-6-6-6-6-6/-6-6-6-6-6/-6-6-6-6-6/-6-6-6-6-6-
A-6-6-6-6-4/-6-6-6-6-4/-6-6-6-6-4/-6-6-6-6-4-
E-4-4-4-4--/-4-4-4-4--/-4-4-4-4--/-4-4-4-4---

e-------------------------------------------------------------
B-------------------------------------------------------------
G---------6-6-6-6---------6-6-6-6---------6-6-6-6---------6---
D-6-6-6-6-6-6-6-6-6-6-6-6-6-6-6-6-6-6-6-6-6-6-6-6-6-6-6-6-6---
A-6-6-6-6-4-4-4-4-6-6-6-6-4-4-4-4-6-6-6-6-4-4-4-4-6-6-6-6-4---
E-4-4-4-4---------4-4-4-4---------4-4-4-4---------4-4-4-4-----
drink drank punk,drink drank punk,drink drank punk,drinkdrank punk


e------------------------------------------
B------------------------------------------
G------------------------------------------
D-4-4-4-4-4-4-6-6-6-6-6-6-8-8-8-8-8-8-8-8--(2x)
A-2-2-2-2-2-2-4-4-4-4-4-4-6-6-6-6-6-6-6-6--
E------------------------------------------

e-------------------------------------------------------------
B-------------------------------------------------------------
G---------6-6-6-6---------6-6-6-6---------6-6-6-6---------6---
D-6-6-6-6-6-6-6-6-6-6-6-6-6-6-6-6-6-6-6-6-6-6-6-6-6-6-6-6-6---
A-6-6-6-6-4-4-4-4-6-6-6-6-4-4-4-4-6-6-6-6-4-4-4-4-6-6-6-6-4---
E-4-4-4-4---------4-4-4-4---------4-4-4-4---------4-4-4-4-----
drink drank punk,drink drank punk,drink drank punk,drinkdrank punk

e------------------
B------------------
G------------------
D------------------ END
A-6----6-----6----6
E-4----4-----4----4


EMAIL ME IF ANY QUESTIONS....XYOUNGXPUNKX@AOL.COM
PEACE

Like us on Facebook.....
-> Loading Time :0.0312 sec