Dirty Tabs & Lyrics by Korn

Dirty

guitar tabs lyrics

Korn

Album : Issues nu metal PlayStop



Band-korn
song-Dirty


Intro:
d|--------------|--------------19-----------------------|
a|///12---------|-----13-------------20---19\7...(/15)--|
F|----------12--|--16-------16----16--------------------|
C|--------------|---------------------------------------| (Guitar1)
G|--------------|---------------------------------------|

D|--------------|---------------------------------------|
A|--------------|---------------------------------------|

Pre-Chorus:
d|------8-----------11--|------8-----------11-|
a|---12---12-----13-----|---12---12-----13----|
F|-9----------10--------|-9----------10-------|
C|----------------------|---------------------| (Guitar1)
G|----------------------|---------------------|
D|----------------------|---------------------|
A|----------------------|---------------------|

d|--------------------------------------------|
a|--------------------------------------------|
F|--------------------------------------------|
C|--------------------------------------------| (Guitar2 with Wah-Wah)
G|--------------------------------------------|
D|-0-0-0-0--0-0-0-0--0-0-0-0--0-0-0-0--0-0-0-0|
A|--------------------------------------------|

Chorus:
d|------8-----------11--|------8-----------11-|
a|---12---12-----13-----|---12---12-----13----|
F|-9----------10--------|-9----------10-------|
C|----------------------|---------------------| (Guitar1)
G|----------------------|---------------------|
D|----------------------|---------------------|
A|----------------------|---------------------|

d|-----------------------------|
a|-----------------------------|
F|-----------------------------|
C|-----------------------------| (Guitar2)
G|-----------------------------|
D|------5------5------8------8-|
A|--5*5----5*5----6*6----6*6---|

Fill1:
d|--------------------------------------------|
a|--------------------------------------------|
F|--------------------------------------------|
C|--------------------------------------------| (Guitar2 with Feedback)
G|--------------------------------------------|
D|-0-0-0-0--0-0-0-0--0-0-0-0--0-0-0-0--0-0-0-0|
A|--------------------------------------------|

Pre-Chorus:
d|------8-----------11--|------8-----------11-|
a|---12---12-----13-----|---12---12-----13----|
F|-9----------10--------|-9----------10-------|
C|----------------------|---------------------| (Guitar1)
G|----------------------|---------------------|
D|----------------------|---------------------|
A|----------------------|---------------------|

d|--------------------------------------------|
a|--------------------------------------------|
F|--------------------------------------------|
C|--------------------------------------------| (Guitar2 with Wah-Wah)
G|--------------------------------------------|
D|-0-0-0-0--0-0-0-0--0-0-0-0--0-0-0-0--0-0-0-0|
A|--------------------------------------------|

Chorus:
d|------8-----------11--|------8-----------11-|
a|---12---12-----13-----|---12---12-----13----|
F|-9----------10--------|-9----------10-------|
C|----------------------|---------------------| (Guitar1)
G|----------------------|---------------------|
D|----------------------|---------------------|
A|----------------------|---------------------|

d|-----------------------------|
a|-----------------------------|
F|-----------------------------|
C|-----------------------------| (Guitar2)
G|-----------------------------|
D|------5------5------8------8-|
A|--5*5----5*5----6*6----6*6---|

Bridge:

d|--14+++++++++15++++++++++\7+++++++++++++|
a|----------------------------------------|
F|----------------------------------------|
C|----------------------------------------| (Guitar1)
G|----------------------------------------|
D|----------------------------------------|
A|----------------------------------------|

d|-----------------------------------------|
a|-----------------------------------------|
F|---6/7------9------7---4---6/7---4---6/7-|
C|-4-----5/(7)---7\5-------4---------4-----| (Guitar2)
G|-----------------------------------------|
D|-----------------------------------------|
A|-----------------------------------------|

Chorus:
d|------8-----------11--|------8-----------11-|
a|---12---12-----13-----|---12---12-----13----|
F|-9----------10--------|-9----------10-------|
C|----------------------|---------------------| (Guitar1)
G|----------------------|---------------------|
D|----------------------|---------------------|
A|----------------------|---------------------|

d|-----------------------------|
a|-----------------------------|
F|-----------------------------|
C|-----------------------------| (Guitar2)
G|-----------------------------|
D|------5------5------8------8-|
A|--5*5----5*5----6*6----6*6---|

Like us on Facebook.....
-> Loading Time :0.0167 sec