Devoured Death Tabs & Lyrics by Incantation

Devoured Death

guitar tabs lyrics

Incantation

Album : Onward to Golgotha death metal PlayStop



INCANTATION - DEVOURED DEATH
From the Album - ONWARD TO GOLGOTHA
Copyright: RELASPE RECORDS 1992
Version 1.0 - MAR,21 2002

Transcribed By: James Williams (Inverted)

For Questions, Comments, Newest Version, or Corrections contact
Inverted: at [email protected]

Check Out Death8699.com, With More Transcriptions On It:
http://www.death8699.com

. - palm mute / - slide up to
\ - slide down to ~ - vibrato
h - hammer on b - Bend
p - pull off Suffixes for bend
t - tap f - full bend h - half bend
ph - pinched harmonic q - quarter bend t - tap bend
* - see comment ^ - Hold bend r release bend
x - Stuccatto ~ - vibrato bend
, - slight palm mute () - ghost note, sustained note
" - tremolo note - Trill

TUNNING "C"F"A#"D#"G"C"

Riff 1
|------------------------------------------------------|
|------------------------------------------------------|
|------------------------------------------------------|
|------------------------------------------------------|
|------------------------------------------------------|
|--1100443366666666-1-0-4-3~-1100443366666666-1-0-4-3~-|

Riff 2
|----------------------------------------------|
|----------------------------------------------|
|--------------------ph--------------------ph--|
|--3---ph-----3---4--1~--3---ph-----3---4--1~--|
|--3---4p3p1--3---4------3---4p3p1--3---4------|
|--1----------1---2------1----------1---2------|

Riff 3
|--------------------------------------------------------------------|
|--------------------------------------------------------------------|
|--------------------------------------------------------------------|
|--------------------------------------------------------------------|
|--------------------------5555----------------------------5555------|
|--111111110044331100000000----3333111111110044331100000000----3333--|

Riff 4-A
|--------------------------------------------------------------------|
|--------------------------------------------------------------------|
|--------------------------------------------------------------------|
|--------------------------------------------------------------------|
|----------44336666------------------------44336666------------------|
|--33333333--------111111114433444433333333--------1111111144334444--|

Riff 4-B
|--------------------------------------------------------------------|
|--------------------------------------------------------------------|
|--------------------------------------------------------------------|
|----------6/5\8---------------------------6/5\8---------------------|
|--5-------4/3\6---3-------6/5\6---5-------4/3\6---3-------6\5\6-----|
|--3---------------1-------4/3\4---3---------------1-------4\3\4-----|

Fill 1
|-------------------|
|-------------------|
|-------------------|
|-------------3--4--|
|-------------3--4--|
|-12/-0-0-0-0-1--2--|
. . . .

Riff 5
|----------------------------------------------------------|
|----------------------------------------------------------|
|----------------------------------------------------------|
|--------------3---------3--4--------------3---------3--4--|
|----4-3---4-3-1---------3--2----4-3---4-3-1---------3--4--|
|--1-----1-------0-0-0-0-1--2--1-----1-------0-0-0-0-1--2--|
. . . . . . . .

Riff
|-----------------------------------------------------------------|
|-----------------------------------------------------------------|
|-----------------------------------------------------------------|
|--------------ph-------------ph--------------ph--------------ph--|
|--------------12---------3--3~-------------12---------3--3~--|
|--0-0-0-0-0-0------0-0-0-0-1-----0-0-0-0-0-0------0-0-0-0-1------|
. . . . . . . . . . . . . . . . . . . .

Fill 2
|---------------------------|
|---------------------------|
|---------------------------|
|--3----7----4--------------|
|--3----7----4----5555------|
|--1----5----3--------3333--|

Check out my other tabs by Incantation, Grave, Hypocrisy, Deicide,
Obituary, Six Feet Under, Catastrophic and Death.

Like us on Facebook.....
-> Loading Time :0.0062 sec