Dethroned Emperor Tabs & Lyrics by Vader

Dethroned Emperor

guitar tabs lyrics

Vader

Album : Future of the Past death metal PlayStop



Band: Vader
Album: Future of the Past
Song: Dethroned Emperor
by vaderfan
*** ORIGINALLY BY "CARNAL" ***


I gitara 4x:
e----------------------------------------|
B----------------------------------------|

G----------------------------------------|
D----------------------------------------|
A--2m-2m-2m-2m-3-2m-2m-2m-2m-4-2m-2m-8/7-|
E--0m-0m-0m-0m-1-0m-0m-0m-0m-2-0m-0m-6/5-|

II gitara (gdy I gitara gra pre 3 raz):
e----------------------------------------|----------------------------|
B----------------------------------------|----------------------------|
G----------------------------------------|----------------------------|
D----------------------------------------|----------------------------|
A--2m-2m---------------------------------|--2m-2m---------------------|
E--0m-0m---------------------------------|--0m-0m---------------------|

Obie gitary 4x:
e----------------------------------------|
B----------------------------------------|
G----------------------------------------|
D----------------------------------------|
A--2m-2m-2m-2m-3-2m-2m-2m-2m-4-2m-2m-8/7-|
E--0m-0m-0m-0m-1-0m-0m-0m-0m-2-0m-0m-6/5-|
Rise!!!

Fig.1 2x
e----------------------------------------|----------------------------------------|
B----------------------------------------|----------------------------------------|
G----------------------------------------|----------------------------------------|
D-----------------------------------3-3--|----------------------------------------|
A--2m-2m-2m-2m-2m-2m-2m-2m-2m-2m-2m-1-1--|--2m-2m-2m-2m-2m-2m-2m-2m-2m-2m---------|
E--0m-0m-0m-0m-0m-0m-0m-0m-0m-0m-0m------|--0m-0m-0m-0m-0m-0m-0m-0m-0m-0m-2~-0-2~-|
See the portal gate to madness
Locked forever in a veil of shame

Fig.2
e----------------------------------------------------|
B----------------------------------------------------|
G----------------------------------------------------|
D-----------------------3-------------------------5--|
A--2-2m-2m-4--2m--2m-2m-1--2m--2m-2m-6--2m--2m-2m-3--|
E--0-0m-0m-2--0m--0m-0m----0m--0m-0m-4--0m--0m-0m----|
Deny extraction - thirst for disgrace
Watch his break - the emperor's killed
Light of the day - shadow from beyond
Scaffold of steel - the throne has gone
Fig.3 x4
e-------------------------------------|
B-------------------------------------|
G-------------------------------------|
D-------------------------------10-9--|
A--------------------------------8-7--|
E--0m-0m0m0m-0m-0m0m0m-0m-0m0m0m------|

Fig.4 I gitara: x2
e---------------------------------------------------------|
B---------------------------------------------------------|
G--------------------------------------------------4/3----|
D--------------------------------------4--3--4--3-----5/4-|
A--4--4m-4m-4--4m-4m-4--4m-4m-4--4m-4m-2--1--2--1---------|
E--2--2m-2m-2--2m-2m-2--2m-2m-2--2m-2m-2-----2------------|

II gitara: x2
e---------------------------------------------------------|
B---------------------------------------------------------|
G---------------------------------------------------------|
D--------------------------------------4--3--4--3---------|
A--4--4m-4m-4--4m-4m-4--4m-4m-4--4m-4m-2--1--2--1---------|
E--2--2m-2m-2--2m-2m-2--2m-2m-2--2m-2m-2-----2------------|

Fig.5 I gitara:
e---------------------------------------------------------|
B---------------------------------------------------------|
G--------------------------------------------------4/3----|
D--------------------------------------4--3--4--3-----5/4-|
A--4--4m-4m-4--4m-4m-4--4m-4m-4--4m-4m-2--1--2--1---------|
E--2--2m-2m-2--2m-2m-2--2m-2m-2--2m-2m-2-----2------------|
Dethroned emperor!

II gitara:
e---------------------------------------------------------|
B--------------------------------------------------3/2----|
G-----------------------------------------------------4/3-|
D--------------------------------------4--3--4--3---------|
A--4--4m-4m-4--4m-4m-4--4m-4m-4--4m-4m-2--1--2--1---------|
E--2--2m-2m-2--2m-2m-2--2m-2m-2--2m-2m-2-----2------------|

Obie gitary:
e---------------------------------------------------------|
B---------------------------------------------------------|
G---------------------------------------------------------|
D--------------------------------------4--3--4--3---------|
A--4--4m-4m-4--4m-4m-4--4m-4m-4--4m-4m-2--1--2--1-2-------|
E--2--2m-2m-2--2m-2m-2--2m-2m-2--2m-2m-2-----2----0-------|

Fig.6 (obie gitary naprzemian):
e------------------------|
B------------------------|
G------------------------|
D------------------------|
A--2---------------------|
E--0-3-2-1~---0-3-2-1~---|

solo ()
podklad pod solo Fig.2 x2 Fig.1 x2 (tekst):(The) foot of the stairs, dimension in might
The king sits, (his) eyes are glass
Fig.2 x2 (tekst): Growing of the small - the laughter's fall
Can you deny - remaining cries?
Descent of the lords - into te trap
Existence and hate - unseen gate

Fig.3 x2
e-------------------------------------|
B-------------------------------------|
G-------------------------------------|
D-------------------------------10-9--|
A--------------------------------8-7--|
E--0m-0m0m0m-0m-0m0m0m-0m-0m0m0m------|

e-------------------------------------------|
B-------------------------------------------|
G-------------------------------------------|
D--------------------------------------10-9-|
A---------------------------------------8-7-|
E--0m0m0m0m0m0m0m0m0m0m0m0m0m0m0m0m0m0m-----|

Fig.7: x3
e----------------------------------------------------------|
B----------------------------------------------------------|
G----------------------------------------------------------|
D--------------------------------------4--3--4--3----------|
A--4--4m-4m-4--4m-4m-4--4m-4m-4--4m-4m-2--1--2--1---2/1----|
E--2--2m-2m-2--2m-2m-2--2m-2m-2--2m-2m-2-----2---------3/2-|

e----------------------------------------------------------|
B----------------------------------------------------------|
G----------------------------------------------------------|
D--------------------------------------4--3--4--3----------|
A--4--4m-4m-4--4m-4m-4--4m-4m-4--4m-4m-2--1--2--1--2-------|
E--2--2m-2m-2--2m-2m-2--2m-2m-2--2m-2m-2-----2-----0-------|
Dethroned emperor !
End

Like us on Facebook.....
-> Loading Time :0.0101 sec