Delilah Tabs & Lyrics by Kaia

Delilah

guitar tabs lyrics

Kaia

Album : KaiaPlayStop


rom: Emmilie
Date: Thu, 19 Mar 1998 13:10:11 EST

In a message dated 98-03-17 17:37:46 EST, you write:

Delilah by Kaia on her self titled
album
>
> Am C
> E-----------------------------------------------------|
> B-------------1-----------------------1---------------|

> G----------2----2-----------------0----0--------------|
> D-------2----------2-----------2----------2-----------|
> A----0---------------------3--------------------------|
> E-----------------------------------------------------|
> Em G6
E----------------------------------------------------------|
B--------------0--------------------------------0----------|
G----------0-----0--------------------------0----0---------|
D-------2-----------2--------------------0---------0-------|
A----2-----------------------------------------------------|
E-------------------------------------3--------------------|
> Am C Em G6
> Last night I met Delilah
>
> Am C Em G6
> She is the Queen of the Nile
>
> Am C Em G6 Am C Am
> When will I see her again De- li----- lah-----
>
> Am C Em G6 (finger pcik pattern)
> Last night I kissed Delilah
>
> Am C Em G6
> Ah Ah I don't even know her
>
> Am C Em G6 Am C Am
> When will I see her again De- li---- lah-----
>
> D Dsus2 D Dsus2 A Asus2 A Asus2
> Is it wrong to love------------- De li-----------lah---------
> (repeat)
>
> D Dsus2 D Dsus2 A Asus2 A Asus2
> Do you believe in love at first sight I do I do
> (repeat)
>
> Am C Em G6 Am C Em G6 (finger pick pattern)
>
> Am C Em G6
> Last night I met Delilah
>
> Am C Em G6
> She is the Queen of the Nile
>
> Am C Em G6 Am C Am
> When will I see her again De- li---- lah-----
>
> Am (pick down the chord)
> Delilah------- >>

Like us on Facebook.....
-> Loading Time :0.0141 sec