Dead City Radio and the New Gods of Supertown Tabs & Lyrics by Rob Zombie

Dead City Radio and the New Gods of Supertown

guitar tabs lyrics

Rob Zombie

Album : Dead City Radio and the New Gods of SupertownPlayStop



-----------------------------------------------------------------------------
Dead City Radio And The New Gods of Supertown - Rob Zombie
-----------------------------------------------------------------------------

Tabbed by: zippyman69
Email: [email protected]

Tuning: D Tuning (DGCFAD)


Intro 0:06

|-----------------------------------------------------------------------|
|-----------------------------------------------------------------------|
|-----------------------------------------------------------------------|
|-----------------------------------------------------------------------|
|-----------------------------------------------------------------------|
|-0-0-0-12-0-12-0-0-0-12-0-12-0-0-0-12-0-12-0-0-0-12-0-12-0-0-0-12-0-12-|
. . . . . . . . . . . . . . . . . . . . . . . . . . . . . .
|-----------------------------------------------------------------------|
|-----------------------------------------------------------------------|
|-----------------------------------------------------------------------|
|-----------------------------------------------------------------------|
|-----------------------------------------------------------------------|
|-0-0-0-12-0-12-0-0-0-12-0-12-0-0-0-12-0-12-0-0-0-12-0-12-0-0-0-12-0-12-|
. . . . . . . . . . . . . . . . . . . . . . . . . . . . . .
|----------------------------------------------------------|
|----------------------------------------------------------|
|----------------------------------------------------------|
|----------------------------------------------------7---5-|
|----------------------------------------------------7---5-|
|-0-0-0-12-0-12-0-0-0-12-0-12-0-0-0-12-0-12-0-0-0----5---3-|


Pre-Verse 0:20

|-------------------------------------------------------|
|-------------------------------------------------------|
|-------------------------------------------------------|
|--------------------------------------------5--7---5---|
|--------------------------------------------5--7---5---|
|-0-0-0-12-0-12-0-0-0-12-0-12-0-0-0-12-0-12--3--5---3---|

|-------------------------------------------------------|
|-------------------------------------------------------|
|-------------------------------------------------------|
|--------------------------------------------7--5---7---|
|--------------------------------------------7--5---7---|
|-0-0-0-12-0-12-0-0-0-12-0-12-0-0-0-12-0-12--5--3---5---|

|-------------------------------------------------------|
|-------------------------------------------------------|
|-------------------------------------------------------|
|--------------------------------------------5--7---5---|
|--------------------------------------------5--7---5---|
|-0-0-0-12-0-12-0-0-0-12-0-12-0-0-0-12-0-12--3--5---3---|


|-------------------------------------------------------|
|-------------------------------------------------------|
|-------------------------------------------------------|
|--------------------------------------------7--5---7---|
|--------------------------------------------7--5---7---|
|-0-0-0-12-0-12-0-0-0-12-0-12-0-0-0-12-0-12--5--3---5---|


Verse 0:34

|-----------------------------------------------------------------------|
|-----------------------------------------------------------------------|
|-----------------------------------------------------------------------|
|-----------------------------------------------------------------------|
|-----------------------------------------------------------------------|
|-0-0-0-12-0-12-0-0-0-12-0-12-0-0-0-12-0-12-0-0-0-12-0-12-0-0-0-12-0-12-|
. . . . . . . . . . . . . . . . . . . . . . . . . . . . . .

|----------------------------------------|
|----------------------------------------|
|----------------------------------------|
|------------------------------7--5---7--|
|------------------------------7--5---7--|
|-0-0-0-12-0-12-0-0-0-12-0-12--5--3---5--|
. . . . . . . . . . . .

|-----------------------------------------------------------------------|
|-----------------------------------------------------------------------|
|-----------------------------------------------------------------------|
|-----------------------------------------------------------------------|
|-----------------------------------------------------------------------|
|-0-0-0-12-0-12-0-0-0-12-0-12-0-0-0-12-0-12-0-0-0-12-0-12-0-0-0-12-0-12-|
. . . . . . . . . . . . . . . . . . . . . . . . . . . . . .

|--------------------------------------------------------------|
|--------------------------------------------------------------|
|-------------------------------------------9---9--9-9-9-9-----|
|------------------------------5--7---5-----x---x--x-x-x-x-----|
|------------------------------5--7---5-----7---7--7-7-7-7-----|
|-0-0-0-12-0-12-0-0-0-12-0-12--3--5---3------------------------|
. . . . . . . . . . . .

Pre-Chorus 0:51 There is an overdubbed guitar here.

Guitar One
|----------------------------------------------|
|----------------------------------------------|
|-9-7---7--------------------------------------|
|-----9---9-7-9-7---7------------------7---5---|
|-----------------9---9-7-9-7---7------7---5---|
|-----------------------------9---9-7--5---3---|

Guitar Two
|-12-10----10---------------------------------------------|
|-------12----12-10-12-10----10---------------------------|
|-------------------------11----11-9-11-9----9------------|
|-----------------------------------------11---9--7---5---|
|-------------------------------------------------7---5---|
|-------------------------------------------------5---3---|

Chorus 0:54

|------------------------------------------------|
|------------------------------------------------|
|------------------------------------------------|
|-2---2------2--5--2---------2---2------2--5--2--|
|-2---2------2--5--2---------2---2------2--5--2--|
|-0---0------0--3--0---------0---0------0--3--0--|

|------------------------------------------------|
|------------------------------------------------|
|------------------------------------------------|
|-2---2------2--5--2---------2---2------2--5--2--|
|-2---2------2--5--2---------2---2------2--5--2--|
|-0---0------0--3--0---------0---0------0--3--0--|

Pre-Verse 1:09

|-------------------------------------------------------|
|-------------------------------------------------------|
|-------------------------------------------------------|
|--------------------------------------------5--7---5---|
|--------------------------------------------5--7---5---|
|-0-0-0-12-0-12-0-0-0-12-0-12-0-0-0-12-0-12--3--5---3---|

|-------------------------------------------------------|
|-------------------------------------------------------|
|-------------------------------------------------------|
|--------------------------------------------7--5---7---|
|--------------------------------------------7--5---7---|
|-0-0-0-12-0-12-0-0-0-12-0-12-0-0-0-12-0-12--5--3---5---|

|-------------------------------------------------------|
|-------------------------------------------------------|
|-------------------------------------------------------|
|--------------------------------------------5--7---5---|
|--------------------------------------------5--7---5---|
|-0-0-0-12-0-12-0-0-0-12-0-12-0-0-0-12-0-12--3--5---3---|


|-------------------------------------------------------|
|-------------------------------------------------------|
|-------------------------------------------------------|
|--------------------------------------------7--5---7---|
|--------------------------------------------7--5---7---|
|-0-0-0-12-0-12-0-0-0-12-0-12-0-0-0-12-0-12--5--3---5---|

Verse 1:23

|-----------------------------------------------------------------------|
|-----------------------------------------------------------------------|
|-----------------------------------------------------------------------|
|-----------------------------------------------------------------------|
|-----------------------------------------------------------------------|
|-0-0-0-12-0-12-0-0-0-12-0-12-0-0-0-12-0-12-0-0-0-12-0-12-0-0-0-12-0-12-|
. . . . . . . . . . . . . . . . . . . . . . . . . . . . . .

|----------------------------------------|
|----------------------------------------|
|----------------------------------------|
|------------------------------7--5---7--|
|------------------------------7--5---7--|
|-0-0-0-12-0-12-0-0-0-12-0-12--5--3---5--|
. . . . . . . . . . . .

|-----------------------------------------------------------------------|
|-----------------------------------------------------------------------|
|-----------------------------------------------------------------------|
|-----------------------------------------------------------------------|
|-----------------------------------------------------------------------|
|-0-0-0-12-0-12-0-0-0-12-0-12-0-0-0-12-0-12-0-0-0-12-0-12-0-0-0-12-0-12-|
. . . . . . . . . . . . . . . . . . . . . . . . . . . . . .

|--------------------------------------------------------------|
|--------------------------------------------------------------|
|-------------------------------------------9---9--9-9-9-9-----|
|------------------------------5--7---5-----x---x--x-x-x-x-----|
|------------------------------5--7---5-----7---7--7-7-7-7-----|
|-0-0-0-12-0-12-0-0-0-12-0-12--3--5---3------------------------|

Pre-Chorus 1:40

Guitar One
|----------------------------------------------|
|----------------------------------------------|
|-9-7---7--------------------------------------|
|-----9---9-7-9-7---7------------------7---5---|
|-----------------9---9-7-9-7---7------7---5---|
|-----------------------------9---9-7--5---3---|

Guitar Two
|-12-10----10---------------------------------------------|
|-------12----12-10-12-10----10---------------------------|
|-------------------------11----11-9-11-9----9------------|
|-----------------------------------------11---9--7---5---|
|-------------------------------------------------7---5---|
|-------------------------------------------------5---3---|

Chorus 1:43

|------------------------------------------------|
|------------------------------------------------|
|------------------------------------------------|
|-2---2------2--5--2---------2---2------2--5--2--|
|-2---2------2--5--2---------2---2------2--5--2--|
|-0---0------0--3--0---------0---0------0--3--0--|

|------------------------------------------------|
|------------------------------------------------|
|------------------------------------------------|
|-2---2------2--5--2---------2---2------2--5--2--|
|-2---2------2--5--2---------2---2------2--5--2--|
|-0---0------0--3--0---------0---0------0--3--0--|

|------------------------------------------------|
|------------------------------------------------|
|------------------------------------------------|
|-2---2------2--5--2---------2---2------2--5--2--|
|-2---2------2--5--2---------2---2------2--5--2--|
|-0---0------0--3--0---------0---0------0--3--0--|

|------------------------------------------------|
|------------------------------------------------|
|------------------------------------------------|
|-2---2------2--5--2---------2---2------2--5--2--|
|-2---2------2--5--2---------2---2------2--5--2--|
|-0---0------0--3--0---------0---0------0--3--0--|

Pre-Verse 2:12

|-------------------------------------------------------|
|-------------------------------------------------------|
|-------------------------------------------------------|
|--------------------------------------------5--7---5---|
|--------------------------------------------5--7---5---|
|-0-0-0-12-0-12-0-0-0-12-0-12-0-0-0-12-0-12--3--5---3---|

|-------------------------------------------------------|
|-------------------------------------------------------|
|-------------------------------------------------------|
|--------------------------------------------7--5---7---|
|--------------------------------------------7--5---7---|
|-0-0-0-12-0-12-0-0-0-12-0-12-0-0-0-12-0-12--5--3---5---|

|-------------------------------------------------------|
|-------------------------------------------------------|
|-------------------------------------------------------|
|--------------------------------------------5--7---5---|
|--------------------------------------------5--7---5---|
|-0-0-0-12-0-12-0-0-0-12-0-12-0-0-0-12-0-12--3--5---3---|


|-------------------------------------------------------|
|-------------------------------------------------------|
|-------------------------------------------------------|
|--------------------------------------------7--5---7---|
|--------------------------------------------7--5---7---|
|-0-0-0-12-0-12-0-0-0-12-0-12-0-0-0-12-0-12--5--3---5---|

2:25 - 2:38
Play This (Clean)

|-22-----21-----19-----18-----22-----21-----19-----18---|
|-------------------------------------------------------|
|-------------------------------------------------------|
|-------------------------------------------------------|
|-------------------------------------------------------|
|-------------------------------------------------------|

Pre-Chorus 2:39

Guitar One
|----------------------------------------------|
|----------------------------------------------|
|-9-7---7--------------------------------------|
|-----9---9-7-9-7---7------------------7---5---|
|-----------------9---9-7-9-7---7------7---5---|
|-----------------------------9---9-7--5---3---|

Guitar Two
|-12-10----10---------------------------------------------|
|-------12----12-10-12-10----10---------------------------|
|-------------------------11----11-9-11-9----9------------|
|-----------------------------------------11---9--7---5---|
|-------------------------------------------------7---5---|
|-------------------------------------------------5---3---|

Chorus 2:43

|------------------------------------------------|
|------------------------------------------------|
|------------------------------------------------|
|-2---2------2--5--2---------2---2------2--5--2--|
|-2---2------2--5--2---------2---2------2--5--2--|
|-0---0------0--3--0---------0---0------0--3--0--|

|------------------------------------------------|
|------------------------------------------------|
|------------------------------------------------|
|-2---2------2--5--2---------2---2------2--5--2--|
|-2---2------2--5--2---------2---2------2--5--2--|
|-0---0------0--3--0---------0---0------0--3--0--|

Outro 2:56

|-------------------------------------------------------|
|-------------------------------------------------------|
|-------------------------------------------------------|
|--------------------------------------------5--7---5---|
|--------------------------------------------5--7---5---|
|-0-0-0-12-0-12-0-0-0-12-0-12-0-0-0-12-0-12--3--5---3---|

|-------------------------------------------------------|
|-------------------------------------------------------|
|-------------------------------------------------------|
|--------------------------------------------7--5---7---|
|--------------------------------------------7--5---7---|
|-0-0-0-12-0-12-0-0-0-12-0-12-0-0-0-12-0-12--5--3---5---|

|-------------------------------------------------------|
|-------------------------------------------------------|
|-------------------------------------------------------|
|--------------------------------------------5--7---5---|
|--------------------------------------------5--7---5---|
|-0-0-0-12-0-12-0-0-0-12-0-12-0-0-0-12-0-12--3--5---3---|


|-------------------------------------------------------|
|-------------------------------------------------------|
|-------------------------------------------------------|
|--------------------------------------------7--5---7---|
|--------------------------------------------7--5---7---|
|-0-0-0-12-0-12-0-0-0-12-0-12-0-0-0-12-0-12--5--3---5---|

Guitar One
|----------------------------------------------|
|----------------------------------------------|
|-9-7---7--------------------------------------|
|-----9---9-7-9-7---7------------------7---5---|
|-----------------9---9-7-9-7---7------7---5---|
|-----------------------------9---9-7--5---3---|

Guitar Two
|-12-10----10---------------------------------------------|
|-------12----12-10-12-10----10---------------------------|
|-------------------------11----11-9-11-9----9------------|
|-----------------------------------------11---9--7---5---|
|-------------------------------------------------7---5---|
|-------------------------------------------------5---3---|
Hold this last note out.
Then Play
|----------------|
|----------------|
|----------------|
|---2-------\\\--|
|---2--------\\\-|
|---0---------\\\|
************************************

| / slide up
| \ slide down
| h hammer-on
| p pull-off
| ~ vibrato
| + harmonic
| . Palm Mute
| x Mute Note
| b Bend
| pb Pre-bend
| br Bend release
| pbr Pre-bend release
| brb Bend release bend
| 3 Triplet

************************************

Like us on Facebook.....
-> Loading Time :0.0097 sec