Day to Daze Tabs & Lyrics by NOFX

Day to Daze

guitar tabs lyrics

NOFX

Album : S&M Airlines albums i own PlayStop



____________________________________________
< >
< Band:NOFX >
< Song:Day to Daze >
< Album:Greatest Songs Ever Written (by us) >


This is my favourite song from NOFX. enjoy!!!

h - hammer on

p - pull off
b - bend string up
r - release bend
/ - slide up
\ - slide down
v - vibrato (sometimes written as ~)
t - tap (with strumming hand)
x - muted, struck string

////////// INTRO //////////
[Guitar 1]
e|-----------------|
B|-----------------|
G|-----------------|
D|-----------------|
A|--------------3--|
E|--5--3-0--3-5----|

////////// PRE-VERSE //////////
[Guitar 1]
e|--------------------First-part---------------------|
B|--------------------PLAY TWICE---------------------|
G|-----------------10--------------7--------------9--|
D|--7--------------10--------------7--------------9--|
A|--7---------------8--------------5--------------7--|
E|--5------------------------------------------------|\
\
e|-----------------Second-part-------------------------|\
B|------------------PLAY TWICE-------------------------| \
G|--------------10--10-10-XXX-7--7--7-XXX-9--9--9-XXX--| |Whole figure
D|--7--7--7-XXX-10--10-10-XXX-7--7--7-XXX-9--9--9-XXX--| /
A|--7--7--7-XXX--8---8--8-XXX-5--5--5-XXX-7--7--7-XXX--|/
E|--5--5--5-XXX----------------------------------------|
[Guitar 2]
e|-----------------------------------------------------------|
B|-----------------------------------------------------------|
G|--------------5-------------5-------------5----5-7--5---5--|
D|--7--5-7--5-7---7--5-7--5-7---7--5-7--5-7---7---------7----|
A|-----------------------------------------------------------|
E|-----------------------------------------------------------|

////////// VERSE 1 PART 1 //////////
[Guitar 1]
e|---------------------------------------------------10h12-12p10-12\10--|
B|----------------------------------------------------------------------|
G|--------------10-10-10-10-10-10---------------------------------------|
D|--7-7-7-7-7-7-10-10-10-10-10-10-10-10-10-10-10-10---------------------|
A|--7-7-7-7-7-7--8--8--8--8--8--8-10-10-10-10-10-10---------------------|
E|--5-5-5-5-5-5--------------------8--8--8--8--8--8---------------------|
[Guitar 2]
e|---------------------------------------------------------------|
B|---------------------------------------------------------------|
G|--------------10-10-10-10-10-10--------------------------------|
D|--7-7-7-7-7-7-10-10-10-10-10-10-10-10-10-10-10-10-5-5-5-5-5-5--|
A|--7-7-7-7-7-7--8--8--8--8--8--8-10-10-10-10-10-10-5-5-5-5-5-5--|
E|--5-5-5-5-5-5--------------------8--8--8--8--8--8-3-3-3-3-3-3--|

////////// VERSE 1 PART 2 //////////
[Guitar 1]
e|---------------------------------------------------------12p10-12/17--|
B|---------------------------------------------------10h12--------------|
G|--------------------------------10-10-10-10-10-10---------------------|
D|--10-10-10-10-10-10-7-7-7-7-7-7-10-10-10-10-10-10---------------------|
A|--10-10-10-10-10-10-7-7-7-7-7-7--8--8--8--8--8--8---------------------|
E|---8--8--8--8--8--8-5-5-5-5-5-5---------------------------------------|
[Guitar 2]
e|---------------------------------------------------------------|
B|---------------------------------------------------------------|
G|--------------------------------10-10-10-10-10-10--------------|
D|--10-10-10-10-10-10-7-7-7-7-7-7-10-10-10-10-10-10-5-5-5-5-5-5--|
A|--10-10-10-10-10-10-7-7-7-7-7-7--8--8--8--8--8--8-5-5-5-5-5-5--|
E|---8--8--8--8--8--8-5-5-5-5-5-5-------------------3-3-3-3-3-3--|

////////// CHORUS //////////
[Both guitars]
e|------------------------------|
B|------------------------------|
G|------------------------------|
D|-10-10-7--7-7---5-5-3--3-3-3--|
A|-10-10-7--7-7---5-5-3--3-3-3--|
E|--8--8-5--5-5---3-3-1--1-1-1--|

////////// END-CHORUS //////////
[Both guitars]
e|------------------------------------------------|
B|------------------------------------------------|
G|--------------------------------------10--9-----|
D|--7-7-7--7-7----7-7-10---7-7-7--7-7---10--9-10--|
A|--7-7-7--7-7----7-7-10---7-7-7--7-7----8--7-10--|
E|--5-5-5--5-5----5-5--8---5-5-5--5-5----------8--|

////////// VERSE 2 PART 1 //////////
[Guitar 1]
e|----------------------------------------------------------------|
B|----------------------------------------------------------------|
G|--------------10-10-10-10-10-10---------------------------------|
D|--7-7-7-7-7-7-10-10-10-10-10-10-10-10-10-10-10-10--7h9-12p9-12--|
A|--7-7-7-7-7-7--8--8--8--8--8--8-10-10-10-10-10-10---------------|
E|--5-5-5-5-5-5--------------------8--8--8--8--8--8---------------|

////////// VERSE 2 PART 2 //////////
[Guitar 1]
e|---------------------------------------------------10h12-12p10-12/17--|
B|----------------------------------------------------------------------|
G|--------------------------------10-10-10-10-10-10---------------------|
D|--10-10-10-10-10-10-7-7-7-7-7-7-10-10-10-10-10-10---------------------|
A|--10-10-10-10-10-10-7-7-7-7-7-7--8--8--8--8--8--8---------------------|
E|---8--8--8--8--8--8-5-5-5-5-5-5---------------------------------------|

Song order:
[Guitar 1] [Guitar 2]
INTRO: 8X (0:00) -------------------------
PRE-VERSE: 1X(first and second part) (0:13) PRE-VERSE: 4X (0:13)
VERSE 1 PART 1: 1X (0:38) VERSE 1 PART 1: 1X (0:38)
VERSE 1 PART 2: 1X (0:45) VERSE 1 PART 2: 1X (0:45)
CHORUS: 3X (0:51) CHORUS: 3X (0:51)
END-CHORUS: 1X (1:00) END-CHORUS: 1X (1:00)
PRE-VERSE: 1X(only the second part) (1:07) PRE-VERSE: 2X (1:07)
VERSE 2 PART 1: 1X (1:20) VERSE 1 PART 1: 1X (1:20)
VERSE 2 PART 2: 1X (1:26) VERSE 1 PART 2: 1X (1:26)
CHORUS: 3X (1:32) CHORUS: 3X (1:32)
END-CHORUS: 1X (1:41) END-CHORUS: 1X (1:41)

Like us on Facebook.....
-> Loading Time :0.0491 sec