Crepitating Bowel Erosion Tabs & Lyrics by Carcass

Crepitating Bowel Erosion

guitar tabs lyrics

Carcass

Album : Symphonies of Sickness goregrind PlayStop



Song: CREPITATING BOWEL EROSION
Band: CARCASS
ALBUM: Symphonies of Sickness
Copyright Earache Records 1989

Tuning (Low - High): B E A D F# B


|-------------------------|
|-2---3---4---5---4---3---|

|-2---3---4---5---4---3---|
|-0---1---2---3---2---1---|


trill
|-----------------|-3---------------|-4---------------|-3---------------|
|-2---------------|-3---------------|-4---------------|-3-------9-8-----|
|-2---------------|-1---------------|-2---------------|-1-------7-6-4(5)|
|-0---------------|-----------------|-----------------|-----------------|
trill
|-----------------|-3---------------|-4---------------|-3---------------|
|-2---------------|-3---------------|-4---------------|-3------10-9-----|
|-2---------------|-1---------------|-2---------------|-1-------8-7-6(7)|
|-0---------------|-----------------|-----------------|-----------------|


trill trills..
|-----------------|-----------------|-----------------|---------8(9)----|
|-2---3-4-------3-|-9-8-7-----------|-2---3-4-------3-|10-9-8-------8(9)|
|-2---1-2-------1-|-7-6-5-------1(2)|-2---1-2-------1-|-8-7-6-----------|
|-0-00------------|-----------------|-0-00------------|-----------------|
pm pm

C2 whammy down slow
|-----------------|-----------------|-----------------|-----------------|
|-2---3-4-------3-|-9-8-7-----------|-2---3-4-------3-|12-11-10-\-------|
|-2---1-2-------1-|-7-6-5-----------|-2---1-2-------1-|10-9--8--\-------|
|-0-00------------|-----------------|-0-00------------|-----------------|
pm pm


B1 trill trill
|-----------------|-3---------------|-4---------------|-----------------|
|-2---------------|-3---------------|-4---------------|---------9-8-----|
|-2---------------|-1---------------|-2----------/4-2-|-1(2)----7-6-4(5)|
|-0---------------|-----------------|-----------------|-----------------|

B2 trill trill
|-----------------|-3---------------|-4---------------|-----------------|
|-2---------------|-3---------------|-4---------------|--------12-11----|
|-2---------------|-1---------------|-2----------/4-2-|-1(2)---10-97(8)|
|-0---------------|-----------------|-----------------|-----------------|

Repeat C1 & C2
Repeat A

D1 (w/Solo not tabbed...)
|---------------------------------|---------------------------------|
|---------------------------------|---------------------------------|
|-44444444444422225555555555552222|-44444444444422223333333333332-2-|
|-22222222222200003333333333330000|-22222222222200001111111111110-0-|
pm.......... pm.......... pm.......... pm..............

D2
|---------------------------------|---------------------------------|
|---------------------------------|--------------------------------3|
|-44444444444422225555555555552222|-44444444444422223333333333332-51|
|-22222222222200003333333333330000|-22222222222200001111111111110-3-|
pm.......... pm.......... pm.......... pm..........

E (x16)
|-----------------------------------------|
|-------------3-4-3-----------------------|
|-2-----------1-2-1---5-----------3---5---|
|-0---0-0-0-0---------3---0-0-0-0-1---3---|
pm...... pm......


F (x2)
|-----------------5---------------|-----------------5---------------|
|-2-------6-------5-------5-------|-2-------6-------5-------5---6---|
|-2-------6-------3-------5-------|-2-------6-------3-------5---6---|
|-0-------4---------------3-------|-0-------4---------------3---4---|


G (1) (2,3,4)
|------------------------------------|------------------------------------|
|--------------------------------5---|-9------------------------------5---|
|-2--------6-5------6-9------7-5-3---|-7--------6-5------6-9------7-5-3---|
|-0---0000-4-3-0000-4-7-0000-5-3-----|-----0000-4-3-0000-4-7-0000-5-3-----|
pm... pm... pm... pm... pm... pm...


H
|-----------------------------------------------------------------|
|-----------------------------------------------------------------|
|-------------------------7\5-5---------------------------7\5-5---|
|-5-5-5-5-5-5-6-6-5-5-5-5-5\3-3---5-5-5-5-5-5-6-6-5-5-5-5-5\3-3---|
pm...................... pm......................

Repeat G
Repeat H x 2

Fill
|---------------------------------|
|-4---4-----------3---3-----------|
|-4---4-----------3---3-----------|
|-2---2-----------1---1-----------|
pmh..... pmh.....


I1 (x4)
|-----------------------------------------------------------------|
|---------------------------------------------------------5-------|
|-----------------6-\-5-----------6-/-9-----------7-\-5---3-------|
|-0---0---0---0---4-\-3---0---0---4-/-7---0---0---5-\-3-----------|
pm.............. pm...... pm......

I2
|-----------------------------------------------------------------|
|---------------------------------------------------------5-------|
|-------------------------------------------------7-\-5---3-------|
|-0---0---0---0---0---0---0---0---0---0---0---0---5-\-3-----------|
pm..............................................


I3
|---------------------------------------------------_1/4_---------|
|-------------------------------------------------4--------------|
|-----------------------------------------3---------------3-------|
|-0---0---0---0---0---0---0---0---2p1-----------------------------|
pm..............................

Repeat I2

I4
|-----------------------------------------------------------------|
|---------------------------------4-h-5-p-4-h-7-------------------|
|-------------------------------------------------5---4---2~------|
|-0---0---0---0---0---0---0---0-----------------------------------|
pm.............................. pm......

J1 (x2)
|-----------------4-------3-------|-----------------3-------2-------|
|-2-------5-------4-------3---3---|-2-------4-------3-------2---3---|
|-2-------5-------2-------1---3---|-2-------4-------1-------0---3---|
|-0-------3-------------------1---|-0-------2-------------------1---|


J2 (x2)
|---------------------------------|---------------------------------|
|---------------------------------|---------------------------------|
|-----------------2~------1~------|-----------------1~------0-------|
|-0-------3~------------------1---|-0-------2~------------------1---|


K1
|-----------------------------------------------------------------|
|-----------------------------------------------------------------|
|-5---4---2---3---4---2---2---------------------------------------|
|-3---2---0---1---2---0---0---0-0-1---0-0-0---0-0-1---0-0-0---0-0-|
pm..................................

K1
|-----------------------------------------------------------------|
|-----------------------------------------4---------------6-------|
|-5---4---2---3---4---2---2-------4-------2-------5-------4-------|
|-3---2---0---1---2---0---0-------2---------------3-----------0---|
pm..

Repeat (K1 + K2) x 3

I1
|-----------------------------------------------------------------|
|-----------------------------------------4---------------6-------|
|---------------------------------4-------2-------5-------4-------|
|-0-0-0-0-0-0-0-0-0-0-0-0-0-0-0-0-2---------------3---------------|
pm..............................

I2
|-----------------------------------------------------------------|
|-----------------------------------------------------------------|
|---------------------------------8-8-8-8-7-7-7-7---------6-------|
|-0-0-0-0-0-0-0-0-0-0-0-0-0-0-0-0-----------------6h7p6---4-------|
pm..............................pml.............

Repeat (I1 + I2) x 5

J1 (1,2,3) (4)
|---------------------------------|---------------------------------|
|---------------------------------|---------------------------------|
|-----------------8p7-----6h7p6---|---------5-5-------------6-------|
|-0-0-0-0-0-0-0-0-----------------|-5-h-6-------6-6-5---5---4-------|
pm.............. pm..........


Repeat J1 x 3

J2 (1,2,3) (4)
|---------------------------------|---------------------------------|
|---------------------------------|---------------------------------|
|-2---2---2---2---8p7-----6h7p6---|---------5---------------6-------|
|-0---0---0---0-------------------|-5-h-6-------6---5---5---4-------|
pm.............. pm..........


Repeat J2
Repeat (I1 + I2) x 4
Repeat J1 x 2
Repeat J2 x 2


Outro
|---------------------------------|---------------------------------|
|---------------------------------|---------------------------------|
|---------5---------------6-------|---------5---------------6-------|
|-5-h-6-------6---5---5---4-------|-5-h-6-------6---5---5---4-------|
pm.......... pm..........

(Dive Whammy Bar slowly + Fade Out)
|-------------------------|--------------------------|
|-2---3---4---5---4---3---|-2------------------------|
|-2---3---4---5---4---3---|-2------------------------|
|-0---1---2---3---2---1---|-0------------------------|

The End.



Like us on Facebook.....
-> Loading Time :0.0277 sec