Crash Course in Brain Surgery Tabs & Lyrics by Metallica

Crash Course in Brain Surgery

guitar tabs lyrics

Metallica

Album : Garage Inc. heavy metal PlayStop



Transcribed by www.mikesguitarsite.co.uk

F#5 2 4 x x x x
F5 1 3 x x x x
G5 3 5 x x x x

Gtr I (D G C F A D) - 'James Hetfield - Rhythm w/dist'
Gtr II (D G C F A D) - 'Kirk Hammett - Rhythm w/dist'
Gtr III (D G C F A D) - 'Kirk Hammett - Lead w/dist'

Intro
Q=180
4/4
Gtrs I, II
PM----------------------------|
W Wx4 E E E E E E E E E E E E E E Q
|----------|------------|-----------------|----------------|
|----------|------------|-----------------|----------------|
|----------|------------|-----------------|----------------|
|----------|------------|-------------0-1-|-2--------------|
|----------|------------|-------0-1-2-----|---0-1-2-0-1-2--|
|----------|------------|-0-1-2-----------|----------------|


2/4
PM----------------------------|
E E E E E E E E E E E E E E Q H
|-----------------|----------------|------||
|-----------------|----------------|------||
|-----------------|----------------|------||
|-------------0-1-|-2-----------4--|------||
|-------0-1-2-----|---0-1-2-0-1-2--|------||
|-0-1-2-----------|----------------|------||


4/4
PM| PM PM PM| PM PM PM| PM PM
E E E E E E E E E E E E E E E E E E E E E E E E
||--------------------|-------------------|-------------------|
||o-------------------|-------------------|-------------------|
||--------------------|-------------------|-------------------|
||--------------------|-------------------|-------------------|
||o-4-(4)---4---4---4-|-4-(4)---4---4---4-|-4-(4)---4---4---4-|
||--0h=2--2-2---2---2-|-0h=2--2-2---2---2-|-0h=2--2-2---2---2-|
|-Rhy Fig 1

1.
PM| PM PM PM
E E E E E E E E E Q. E Q. E Q. E Q.
|-------------------|---------------|----------------||
|-------------------|---------------|---------------o||
|-------------------|---------------|----------------||
|-------------------|-4-2-----------|----------------||
|-4-(4)---4---4---4-|--------4-2----|----------3----o||
|-0h=2--2-2---2---2-|---------------|-5-2----0-1-----||
end Rhy Fig 1-|-Rhy Fill 1 end Rhy Fill 1-|

2.
2/4 4/4
E Q. E Q. E Q. W H E S S Q
|---------------|--------|----------|-------------------|
|---------------|--------|----------|-------------------|
|---------------|--------|----------|-------------------|
|-4-2-----------|--------|----------|-------------------|
|--------4-2----|--------|-2--------|-3------12-12------|
|---------------|-5-2----|-0--------|-1----x-------13\--|


Rhy Fig 1


Verses 1, 2

||--
||o-
||-- Rhy Fig 1 x3
||--
||o-
||--


PM| PM| PM|
E E E E E E E E E E E E E E E E E E E E E E E E
|-----------------|-----------------|-----------------|
|-----------------|-----------------|-----------------|
|-----------------|-----------------|-----------------|
|-----------------|-----------------|-----------------|
|-------7---7---7-|-------7---7---7-|-------7---7---7-|
|-3s5-5-5---5---5-|-3s5-5-5---5---5-|-3s5-5-5---5---5-|
|-Rhy Fig 2 end Rhy Fig 2-|


PM----------------| PM| PM PM
E Q. +H E E E E S S S S Q E E E E E E E E
|---------------|----------------------------|-------------------|
|---------------|----------------------------|-------------------|
|---------------|----------------------------|-------------------|
|---------------|----------------------------|-------------------|
|-5-2----(2)----|----------------------------|-4-(4)---4---4---4-|
|-3-0----(0)----|-12---12---12-12-12-12-12\--|-0h=2--2-2---2---2-|


PM| PM PM PM| PM PM PM| PM PM
E E E E E E E E E E E E E E E E E E E E E E E E
|-------------------|-------------------|--------------------||
|-------------------|-------------------|-------------------o||
|-------------------|-------------------|--------------------||
|-------------------|-------------------|--------------------||
|-4-(4)---4---4---4-|-4-(4)---4---4---4-|-4-(4)---4---4---4-o||
|-0h=2--2-2---2---2-|-0h=2--2-2---2---2-|-0h=2--2-2---2---2--||


PM| PM PM
E Q. E Q. E Q. E Q. E E E E E E E E
|---------------|---------------|-------------------|
|---------------|---------------|-------------------|
|---------------|---------------|-------------------|
|-4-2-----------|---------------|-------------------|
|--------4-2----|----------3----|-4-(4)---4---4---4-|
|---------------|-5-2----0-1----|-0h=2--2-2---2---2-|


PM| PM PM PM| PM PM PM| PM PM
E E E E E E E E E E E E E E E E E E E E E E E E
|-------------------|-------------------|-------------------|
|-------------------|-------------------|-------------------|
|-------------------|-------------------|-------------------|
|-------------------|-------------------|-------------------|
|-4-(4)---4---4---4-|-4-(4)---4---4---4-|-4-(4)---4---4---4-|
|-0h=2--2-2---2---2-|-0h=2--2-2---2---2-|-0h=2--2-2---2---2-|


2/4 4/4
E Q. E Q. E Q. W W
|---------------|--------|----------|------||
|---------------|--------|----------|------||
|---------------|--------|----------|------||
|-4-2-----------|--------|----------|------||
|--------4-2----|--------|-2--------|-3----||
|---------------|-5-2----|-0--------|-1----||


Gtrs I, II
F#5
Q Q H W Q Q H
| |
/ /
|------------|----------|------------|


F5 F#5 G5F#5
W Q Q H W E E Q H
| | | |
/ / / /
|----------|------------|----------|-------------|


Guitar Solo
Gtr III
Q Q Q Q S S S S S S S S S S S S Q
|--------------||-/17-17-17-17-17-17-17-17-17-17-17-17-17\---|
|--------------||-/17-17-17-17-17-17-17-17-17-17-17-17-17\---|
|--------------||--------------------------------------------|
|--------------||--------------------------------------------|
|-xs=xs=xs=x/--||--------------------------------------------|
|-xs=xs=xs=x/--||--------------------------------------------|
|
| Gtrs I, II
|
| W
|--------------||
|--------------||
|--------------|| w/Rhy Fig 2
|--------------||
|-4------------||
|-2------------||


S S S S S S S S S S S S Q
|-/17-17-17-17-17-17-17-17-17-17-17-17-17\---|
|-/17-17-17-17-17-17-17-17-17-17-17-17-17\---|
|--------------------------------------------|
|--------------------------------------------|
|--------------------------------------------|
|--------------------------------------------|


S S S S S S S S S S S S S S S S
|-/17-17-17-17-19-19-19-19-20-20-20-20-19-19-17-17-|
|-/17-17-17-17-17-17-17-17-17-17-17-17-17-17-17-17-|
|--------------------------------------------------|
|--------------------------------------------------|
|--------------------------------------------------|
|--------------------------------------------------|


|---3---| |---3----|
E E E E E E +Q E E
|-19-19---20-20-/22---22-(22)\---/17-17-|
|-17-17---17-17-------------------------|
|---------------------------------------|
|---------------------------------------|
|---------------------------------------|
|---------------------------------------|
|
| PM----|
| E E E E E E Q
|---------------------------------------|
|---------------------------------------|
|---------------------------------------|
|----------------------------------5----|
|-------------------7------7---7---3----|
|--3s===5-----5-----5------5---5--------|

w/Rhy Fig 2
S S S S S S S S S S S S S S S S
|-20-19-17-17-22-19-17-17-20-19-17-17-22-19-17-17-|
|-------------------------------------------------|
|-------------------------------------------------|
|-------------------------------------------------|
|-------------------------------------------------|
|-------------------------------------------------|


S S S S S S S S S S S S S S S S
|-20-19-17-17-22-19-17-17-20-19-17-17-22-19-17-17-|
|-------------------------------------------------|
|-------------------------------------------------|
|-------------------------------------------------|
|-------------------------------------------------|
|-------------------------------------------------|


S S S S S S S S S S S S S S S S
|-20-19-17-17-22-19-17-17-20-19-17-17-22-19-17-17--|
|--------------------------------------------------|
|--------------------------------------------------|
|--------------------------------------------------|
|--------------------------------------------------|
|--------------------------------------------------|


Q Q Q Q
|-17------17------17------18------|
|-20b22---20b22---20b22---21b23---|
|---------------------------------|
|---------------------------------|
|---------------------------------|
|---------------------------------|
|
| PM-------------------|
| E E E E E E E E
|---------------------------------|
|---------------------------------|
|---------------------------------|
|---------------------------------|
|---------------------------------|
|--3s===5--5----5--5----5--5----5-|


Q +Q +H +Q e E H
|-------------------------------|------------------------|
|-19b21=====(19)--(19)b23=======|=(19)----19r------------|
|-------------------------------|------------------------|
|-------------------------------|------------------------|
|-------------------------------|---------------12\------|
|-------------------------------|---------------12\------|
|
| E Q. E Q. E Q. E Q.
|-------------------------------|------------------------|
|-------------------------------|------------------------|
|-------------------------------|------------------------|
|--7-----5----------------------|------------------------|
|-------------------7------5----|---3---------------6----|
|-------------------------------|------5---------3--4----|

w/Rhy Fig 1 (1st 2 bars only)
~~~~~~~~~~~~
Q. E +E E +E E +E +E E E +E E E E
|--------------------------------------------|-----------------------|
|-[5]b7-------[5]b7==(5)r-[5]b7==(5)r-[5]b7==|=(5)r(5)-5-------------|
|--------------------------------------------|-------------------2-4-|
|--------------------------------------------|-----------2-(2)-4-----|
|--------------------------------------------|-----------------------|
|--------------------------------------------|-----------------------|


E +E E E +E E E +E E E +E E E +Q E
|-----------------------------|----------------------------|
|-----------------------------|----------------------------|
|-4b6r(4)-2-4b6r(4)-2-4b6r(4)-|-2--4b6r(4)-2-4b6==(4)r---4-|
|-----------------------------|----------------------------|
|-----------------------------|----------------------------|
|-----------------------------|----------------------------|
|
| PM| PM PM PM---------------|
| E E E E E E E E E E E E E E E E
|-----------------------------|----------------------------|
|-----------------------------|----------------------------|
|-----------------------------|----------------------------|
|-----------------------------|----------------------------|
|-4---(4)---4-------4------4--|-4-(4)------4-4-----4---4-4-|
|-0h===2--2-2-------2------2--|-0h=2----2--2-2-----2---2-2-|

w/Rhy Fig 1
S S S S S S S S S S S S S S S S
|-----------------------------------|
|-------------------8p6-----9p7-----|
|-4h6p=4--0-5h7p5-0-----8p6-----9p7-|
|-----------------------------------|
|-----------------------------------|
|-----------------------------------|


S S S S S S S S S S S S S S S S
|-----------------------------------------------|
|-10p8-------11p9------12p10-------13p11--------|
|------10p=8------11p9-------12p10-------13p11--|
|-----------------------------------------------|
|-----------------------------------------------|
|-----------------------------------------------|


S S S S S S S S S S S S S S S S
|--------------------------------------------------|
|-14p12--------15p13-------16p14-------17p15-------|
|-------14p=12-------15p13-------16p14-------17p15-|
|--------------------------------------------------|
|--------------------------------------------------|
|--------------------------------------------------|


Q Q Q E +S S
|-----------------------------------------|
|-18b20-----18b20---18b20---18b20r(18)p15-|
|-----------------------------------------|
|-----------------------------------------|
|-----------------------------------------|
|-----------------------------------------|


Bass Guitar Solo
2/4 4/4 2/4 4/4
H +H +H W H Q Q H
|-18b21=======(18)------|-(18)r------|-----------|--------||------------|
|-----------------------|------------|-----------|--------||------------|
|-----------------------|------------|-----------|--------||------------|
|-----------------------|------------|-----------|--------||------------|
|-----------------------|------------|-12s=======|==5s====||=x----------|
|-----------------------|------------|-12s=======|==5s====||=x----------|
|
| E Q. E Q. E Q. W +H Q Q H
|-----------------------|------------|-----------|--------||------------|
|-----------------------|------------|-----------|--------||------------|
|-----------------------|------------|-----------|--------||------------|
|--4-----2--------------|------------|-----------|--------||------------|
|---------------4--2----|------------|--2--------|-(2)----||-2----------|
|-----------------------|---5---2----|--0--------|-(0)----||-0----------|


Gtrs I, II
Wx7 E E q E E q E E q E E Q
|------------|---------------|----------------||
|------------|---------------|----------------||
|------------|---------------|----------------||
|------------|-----7---------|-----7----------||
|------------|-7-9--------7--|-7-9--------7\--||
|------------|--------7-9----|--------7-9-----||


Verse 3
Rhy Fig 1
Rhy Fill 1
Rhy Fig 1




F#5
2/4 4/4
Gtr II
W H W W E E +Q H
| | |
/ / /

Gtr I
E Q. E Q. E Q. W W E E +Q H
|----------------|--------|----------|----------|----------------*|
|----------------|--------|----------|----------|----------------*|
|----------------|--------|----------|----------|----------------*|
|-4-2------------|--------|----------|----------|-4-7-(7)\-------*|
|--------4-2-----|--------|-2--------|-3--------|-4-7-(7)\-------*|
|----------------|-5-2----|-0--------|-1--------|-2-5-(5)\-------*|

Like us on Facebook.....
-> Loading Time :0.0067 sec