Christie Road Tabs & Lyrics by Green Day

Christie Road

guitar tabs lyrics

Green Day

Album : The Green Day CollectionPlayStop



----------------------------------------------------------------------------
Christie Road-Green Day
----------------------------------------------------------------------------

Album:Kerplunk
Tuning:Drop D

Tabbed By:WARNINGnimrod12
Email:[email protected]


I'm pretty sure this is 100% correct. The others versions I looked at on this
didn't seem right. Hope you like it!


VERSE 1 x2

E|---------------------------------------------------------------------|
B|---------------------------------------------------------------------|
G|---------------------------------------------------------------------|
D|---4-4-4-4-4-4-4-4-4-4-4-4-4-4-4-4-1-1-1-1-1-1-1-1-1-1-1-1-1-1-1-1---|
A|---4-4-4-4-4-4-4-4-4-4-4-4-4-4-4-4-1-1-1-1-1-1-1-1-1-1-1-1-1-1-1-1---|
D|---4-4-4-4-4-4-4-4-4-4-4-4-4-4-4-4-1-1-1-1-1-1-1-1-1-1-1-1-1-1-1-1---|
P.M. * * * * * * * * * * * * * * * * * * * * * * * * * * * * * * * *


E|------------------------------------------------------|
B|----------------------------------4--------4----------|
G|---4-4-4-4-4--4-4--4-4--4-6----------6--------6-------|
D|---4-4-4-4-4--4-4--4-4--4-6------------6--------6-----|
A|---2-2-2-2-2--2-2--2-2--2-4--------------4--------4---|
D|------------------------------------------------------|
P.M. * * * * * * * * * *


CHORUS


E|---------------------------------------------------------------|
B|-------------------------------------------4---------4---------|
G|---4--4--4-4-4-----------------6--6--6-6-6----6--------6-------|
D|---4--4--4-4-4-4--4-4--4-4-4-4-6--6--6-6-6------6--------6-----| x3
A|---2--2--2-2-2-4--4-4--4-4-4-4-4--4--4-4-4--------4--------4---|
D|---------------4--4-4--4-4-4-4---------------------------------|


E|--------------------------------------|
B|--------------------------------------|
G|---4----------------6~----------------|
D|---4-------4--------6~----------------|
A|---2-------4--------4~----------------|
D|-----------4--------------------------|

VERSE 2 x2

CHORUS 2

BRIDGE

E|----------------------------------------------------------------------|
B|----------------------------------------------------------------------|
G|--------------------4--4--x-x-----------------------4--4--x-x---------|
D|---\4--4--x-x-2-2\1-4--4--x-x-2-2\1-4--4--x-x-2-2\1-4--4--x-x-2-2\1---|x3
A|---\4--4--x-x-2-2\1-2--2--x-x-2-2\1-4--4--x-x-2-2\1-2--2--x-x-2-2\1---|
D|---\4--4--x-x-2-2\1-----------2-2\1-4--4--x-x-2-2\1-----------2-2\1---|


E|---------------------------------------------------------------------|
B|---------------------------------------------------------------------|
G|-----------3-3-3-3-------------------------3-3-3-3-------------------|
D|---4-4-4-4-3-3-3-3-2-2-2-2-2-2-2-2-4-4-4-4-3-3-3-3-2-2-2-2-2-2-2-2---|x4
A|---4-4-4-4-1-1-1-1-2-2-2-2-2-2-2-2-4-4-4-4-1-1-1-1-2-2-2-2-2-2-2-2---|
D|---4-4-4-4---------2-2-2-2-2-2-2-2-4-4-4-4---------2-2-2-2-2-2-2-2---|


E|-------------------------------------------------------------|
B|-------------------------------------------------------------|
G|---4--4------------------------4--4--------------------------|
D|---4--4--2-2-2-4--4-4--4-4-4-4-4--4--2-2-2-4--4-4--4-4-4-4---|
A|---2--2--2-2-2-4--4-4--4-4-4-4-2--2--2-2-2-4--4-4--4-4-4-4---|
D|---------2-2-2-4--4-4--4-4-4-4-------2-2-2-4--4-4--4-4-4-4---|


E|-----------------------------------------------------------------|
B|-----------------------------------------------------------------|
G|---4--4----------------------------------------------------------|
D|---4--4--2-2-2-4--4-4--4-4-4-4-2-2-2-2-2-2-2-2-2-2-2-2-2-2-2-2---|
A|---2--2--2-2-2-4--4-4--4-4-4-4-2-2-2-2-2-2-2-2-2-2-2-2-2-2-2-2---|
D|---------2-2-2-4--4-4--4-4-4-4-2-2-2-2-2-2-2-2-2-2-2-2-2-2-2-2---|
P.M. * * * * * * * * * * * * * * * *


E|-------------------------------|
B|-------------------------------|
G|---4-4-4-4-4-4-4-4-4-4-4-4-4---|
D|---4-4-4-4-4-4-4-4-4-4-4-4-4---|
A|---2-2-2-2-2-2-2-2-2-2-2-2-2---|
D|-------------------------------|
P.M. * * * * * * slowly release


OUTRO

E|-------------------------------------|
B|-------------------------------------|
G|-------------------4--4--x-x---------|
D|---4--4--x-x-2-2\1-4--4--x-x-2-2\1---| x3
A|---4--4--x-x-2-2\1-2--2--x-x-2-2\1---|
D|---4--4--x-x-2-2\1-----------2-2\1---|


E|---------------------------------------|
B|---------------------------------------|
G|-------------------4--4--x-x-----------|
D|---4--4--x-x-2-2\1-4--4--x-x-2-2/4-4---|
A|---4--4--x-x-2-2\1-2--2--x-x-2-2/4-4---|
D|---4--4--x-x-2-2\1-----------2-2/4-4---|

Like us on Facebook.....
-> Loading Time :0.0137 sec