Burn With Jesus Tabs & Lyrics by Immolation

Burn With Jesus

guitar tabs lyrics

Immolation

Album : Here In After death metal PlayStop



Band: IMMOLATION
Album: Here in After
Song: Burn With Jesus


Tuning: 2 steps down (C)

Keys:
___ - palm mute
/ \ - slide

b - bend
" - tremelo pick
p - pull off
r - release bend

Note - This was one of the more time consuming Immolation songs to figure out
so far through the layers of guitar and muddy production...because of
that I did not transcribe each and every guitar, rather I just did the
main guitar part or molded the layers together into one riff.


INTRO:

|---------------------------------|
|---------------------------------|
|--9--9--9----11\-----------------|
|-10-10-10----10\--5--------------|
|--7--7--7-----9\--5--6--8--2-----|
|----------00------------7-----2--| 4x
__

|-----------------------------------------| |-------------|
|-----------------------------------------| |-------------|
|--9--9--9----11\-------------------------| |--9--9--9----|
|-10-10-10----10\-------------------------| |-10-10-10----|
|--7--7--7-----9\-------------------------| |--7--7--7----|
|----------00-----000000-1b--000000-2b----| 4x |----------00-|
__ ______ ______ __


RIFF A:

|-----------------|
|-----------------|
|-----------------|
|---------5-5-----|
|-----------------|
|-6"--3"------3"--| 16x
_______ ___


RIFF B:

|-----------------------------|
|-----------------------------|
|-----------9"----------------|
|----------10"----8"----6"----|
|-7----7-7--------8"----6"----|
|-0-00-0-0--------6"----4"----| 4x
__


RIFF C:

|-------------------|
|-7--------------8--|
|-4--------------5--|
|-4--4\3-6\5-----5--|
|----2\1-4\3--------|
|------------4p3----| 8x


RIFF A - 12x


RIFF Da:

|-------------------------| |-------------------------|
|-------------------------| |-------------------------|
|-------------------------| |-------------------------|
|-------------------------| |-------------------------|
|-2-2--------1------------| |-2-2--------1------------|
|-0-0--0-3/7----111101111-| 7x |-0-0--0-3/7----000010000-|
_________ _________


RIFF E:

|-----------------|
|-------------6-6-|
|-------------7-7-|
|-------------7-7-|
|-2---------------|
|-0--0-0-4br------| 16x
______


RIFF F:

|--------------------|
|--------------------|
|-8------------------|
|-8--8/10\8-7/8-10\8-|
|----6/-8\6-5/6--8\6-|
|----6/-8\6-5/6--8\6-| 6x


RIFF G: (under solo)

|-------------------|
|-------------------|
|-------------------|
|-------------------|
|-0"-3"----6"-0"----|
|-------3"-------1"-| 6x


RIFF F - 6x (under solo)


RIFF E - 12x


RIFF Db:

|-------------------------|
|-------------------------|
|-------------------------|
|-------------------------|
|-2-2--------1------------|
|-0-0--0-3/7----111101111-| 8x
_________


RIFF G - 6x


RIFF B - 4x


RIFF C - 8x


OUTRO:

|---------------------------------------------|
|---------------------------------------------|
|---------------------------------------------|
|---------------------------------------------|
|-1"-0"-1"--2"-0"-------1"-0"-1"--2"-0"-------|
|-----------------2"-1"-----------------2"-1"-|

---------------------------------------------|
---------------------------------------------|
---------------------------------------------|
-2"----2"--------------2"----2"--------------|
-1"-0"-1"--2"-0"-------1"-0"-1"--2"-0"-------|
-----------------2"-1"-----------------2"-1"-|

-----------------------------------------|
-----------------------------------------|
-3"----3"--------------3"----3"----------|
-2"----2"--------------2"----2"----------|
----0"-----2"-0"----------0"-----2"------|
-----------------2"-1"--------------2"-1-|

End.

Like us on Facebook.....
-> Loading Time :0.0076 sec