Better Way Tabs & Lyrics by Shelter

Better Way

guitar tabs lyrics

Shelter

Album : Attaining the Supreme punk rock PlayStop



-------------------------------------------------------------------------------
BETTER WAY - Shelter
-------------------------------------------------------------------------------

By: DJOLE [email protected]

http://www.xyouthoftodayx.cjb.net

Intro
E|---------------------------------------------------------------------------|

B|---------------------------------------------------------------------------|
G|---------------------------------------------------------------------------|
D|--9----7-----9-9----7-----9----7----5-5-5--7-7-----------------------------|
A|----9----9-------9----9-----9----9--5-5-5--7-7-----------------------------|
E|------------------------------------3-3-3--5-5-----------------------------|

E|---------------------------------------------------------------------------|
B|---------------------------------------------------------------------------|
G|------------------------------------7-7-7--8-8-----------------------------|
D|--9----7-----9-9----7-----9----7----7-7-7--8-8-----------------------------| Repeat
A|----9----9-------9----9-----9----9--5-5-5--6-6-----------------------------|
E|---------------------------------------------------------------------------|

Verse Bridge
E|-------------------------------------|-----------------|-------------------|
B|--------------------------------(x4)-|------5-----(x7)-|--/12-12-12-12-12--|
G|---------------12-11-9--11-9-7-------|--4-4---4-2------|-------------------|
D|--9-9-9-9-9-9------------------------|-----------------|-------------------|
A|--9-9-9-9-9-9--10-9--7--9--7-5-------|-----------------|-------------------|
E|--7-7-7-7-7-7------------------------|-----------------|-------------------|

Chorus Break
E|------------------------------------------|--------------------------------|
B|-------------------------------------(x2)-|--------------------------------|
G|-----------6-6-6-6--7-7-7-7---------------|---------------12-11-9--11-9-7--|
D|--9-9-9-9--6-6-6-6--7-7-7-7--7-7-7-7------|--9-9-9-9-9-9-------------------|
A|--9-9-9-9--4-4-4-4--5-5-5-5--7-7-7-7------|--9-9-9-9-9-9--10-9--7--9--7-5--|
E|--7-7-7-7--------------------5-5-5-5------|--7-7-7-7-7-7-------------------|

E|---------------------------------------------------------------------------|
B|---------------------------------------------------------------------------|
G|---------------12-12-11-9--11-9-7------------------------------------------|
D|--9-9-9-9-9-9--------------------------------------------------------------|
A|--9-9-9-9-9-9--------------------------------------------------------------|
E|--7-7-7-7-7-7--------------------------------------------------------------|

Repeat Verse/Bridge/Chorus

Solo
E|--5/7-7-7--5/7-7-7--5/7-7-7--------5/7-7-7--5/7-7-7--5/7-7-7--10-9---------|
B|-----------------------------8-7-------------------------------------------|
G|---------------------------------------------------------------------------|
1. D|------------------------------------------------------------------------|
A|---------------------------------------------------------------------------|
E|---------------------------------------------------------------------------|

E|--13/15-15-13/15-15--13/15-----13/15-15----------13/15-15-13/15-15---------|
B|----------------------------13-----------5-3-------------------------------|
G|---------------------------------------------------------------------------|
D|---------------------------------------------------------------------------|
A|---------------------------------------------------------------------------|
E|---------------------------------------------------------------------------|

E|--13/15------13/15-15---18-------------------------------------------------|
B|--------13-----------------------------------------------------------------|
G|---------------------------------------------------------------------------|
D|---------------------------------------------------------------------------|
A|---------------------------------------------------------------------------|
E|---------------------------------------------------------------------------|

E|---------------------------------------------------------------------------|
B|---------------------------------------------------------------------------|
G|---------------------------------------------------------------------------|
2. D|--9----7-----9-9----7-----9----7----5-5-5--7-7--------------------------|
A|----9----9-------9----9-----9----9--5-5-5--7-7-----------------------------|
E|------------------------------------3-3-3--5-5-----------------------------|

E|---------------------------------------------------------------------------|
B|---------------------------------------------------------------------------|
G|------------------------------------7-7-7--8-8-----------------------------|
D|--9----7-----9-9----7-----9----7----7-7-7--8-8-----------------------------|
A|----9----9-------9----9-----9----9--5-5-5--6-6-----------------------------|
E|---------------------------------------------------------------------------|

Repeat Verse/Bridge

Repeat Chorus x2

===============================================================================

Like us on Facebook.....
-> Loading Time :0.0088 sec