At One With Nothing Tabs & Lyrics by Morbid Angel

At One With Nothing

guitar tabs lyrics

Morbid Angel

Album : Gateways to Annihilation death metal PlayStop



Intro A
|--------------------|
|--------------------|
|--------------------| Gtr.
|-6--5--3--5--3-3-3--| 1
|-6--5--3--5--3-3-3--|
|-4--3--1--3--1-1-1--|
pm . . . . |
| |
|--------------------|

|--------------------|
|--------------------| Gtr.
|-6--5--3------------| 2
|-6--5--3------------|
|-4--3--1------------|
pm .


Intro B
|------------------------------|
|------------------------------|
|------------------------------|
|-6--5--3--5--3-3--------------|
|-6--5--3--5--3-3--------------|
|-4--3--1--3--1-1-3-1-4-3-3-4--|
pm . . . . . . . . .


Intro C
|--------------------------------------|
|--------------------------------------|
|--------------------------------------|
|-6--5--3--5--3-3----------------------|
|-6--5--3--5--3-3----------------------|
|-4--3--1--3--1-1-3-1-4-3-3-4-4-3-3-4--|
pm . . . . . . . . . . . . .


Riff 1a
|-----------------------------------------------------|
|-----------------------------------------------------|
|------------------ph---------------------------------|
|-------------------2br-------------------------------|
|-------3-----3-3-3-----3-3--------3-----3-3-3--------|
|-4--3--1--3--1-1-1-----1-1--4--3--1--3--1-1-1--4--3--|
pm . . . . . . . . . .


Fill
|-------------------------------|
|-------------------------------|
|-5~------8\7/8-8~--------------|
|---------------------7~----7~--|
|-3~------6\5/6-6~--------------|
|---------------------5~----5~--|


Riff 2a
|-----------------------------------------------------|
|-----------------------------------------------------|
|-----------------------------------------------------| Gtr.
|-----------------------------------------------------| 1
|-------3-----3-3-3--------------3-3-----3-3-3--------|
|-4--3--1--3--1-1-1--4--3--4--3--1-1--3--1-1-1--4--3--|
pm . . . . . . . . . |
| |
|-----------------------------------------------------|
|-----------------------------------------------------|
|-----------------------------------------------------| Gtr.
|-----------------------------------------------------| 2
|-------3-----3-3-3--------2--1-------1---------2--1--|
|-4--3--1--3--1-1-1--4--3--------4-4-----4-4-4--------|
pm . . . . . . . . .

Riff 2b
|---------------------------------------------------|
|---------------------------------------------------|
|----------------------------------------------ph---| Gtr.
|-----------------------------------------------2b--| 1
|-------3-----3-3-3--------------3-3-----3-3-3------|
|-4--3--1--3--1-1-1--4--3--4--3--1-1--3--1-1-1------|
pm . . . . . . . . . |

|---------------------------------------------------|
|---------------------------------------------------|
|----------------------------------------------ph---| Gtr.
|-----------------------------------------------2b--| 2
|-------3-----3-3-3--------2--1-------1-------------|
|-4--3--1--3--1-1-1--4--3--------4-4-----4-4-4------|
pm . . . . . . . . .


Riff 1b
|-----------------------------------------------------|
|-----------------------------------------------------|
|------------------ph---------------------------------| Gtr.
|-------------------2br-------------------------------| 1
|-------3-----3-3-3-----3-3--------3-----3-3-3--------|
|-4--3--1--3--1-1-1-----1-1--4--3--1--3--1-1-1--4--3--|
pm . . . . . . . . . . |
| |
|-----------------------------------------------------|
|-----------------------------------------------------|
|------------------ph---------------------------------| Gtr.
|-------------------2br-------------------------------| 2
|-2--1-----1-----------------2--1-----1---------2--1--|
|-------4-----4-4-4-----4-4--------4-----4-4-4--------|
pm . . . . . . . . . .


Riff 3
|------------------------------------------------------------|
|------------------------------------------------------------|
|------------------------------------------------------------|
|---------------------ph-------------------------------------|
|-------2-2------------4b-----------2-2----------------------|
|-0--0--0-0-1h3-0--1h3----1~--0--0--0-0-1h3-3-1-4-3-6-4-3-4--|
pm . . . . . . . . . . . .
|
|ending 2 ending 3
|--------------------------|----------------------|
|--------------------------|----------------------|
|--------------------------|----------------------|
|--------------------------|----------------------|
|--------------------------|----------------------|
|-3-1-4-3-6-4-3-4-6-4-3-4--|-3-1-4-3-6-4-3-4-3-1--|
pm. . . . . . . . . . . . . . . . . . . . . .


Riff 4
|-------------------------------|
|-------------------------------|
|-------------------------------|
|-------------------------------|
|-222222333333------------------|
|--------------6-4-3-4-6-4-3-4--|
pm . . . . . . . .
|
|ending 2 ending 3
|-------------------|-----------------------------------------------|
|-------------------|-----------------------------------------------|
|-------------------|-----------------------------------------------|
|-------------------|-----------------------------------------------|
|-222222333333------|-222222333333----------------------------------|
|--------------6-4--|--------------6-4-3-4-6-4-3-4-6-4-3-4-6-4-3-4--|
pm . . . . . . . . . . . . . . . . . .


Riff 5
|------------------------------------|
|------------------------------------|
|------------------------------------|
| still in progress. Coming soon |
|------------------------------------|
|------------------------------------|

Intro C
|------------------------------|
|------------------------------|
|------------------------------| Gtr.
|------------------------------| 1
|-------3-----3-3--------------|
|-4--3--1--3--1-1-3-1-4-3-3-4--|
pm . . . . . . . . .

|------------------------------|
|------------------------------|
|------------------------------| Gtr.
|------------------------------| 2
|-3--2-----2-------------------|
|-------5-----5-5-7-5-8-7-7-8--|
pm . . . . . . . . .

Riff 1c
|-----------------------------------------------------|
|-----------------------------------------------------|
|------------------ph---------------------------------| Gtr.
|-------------------2br-------------------------------| 1
|-------3-----3-3-3-----3-3--------3-----3-3-3--------|
|-4--3--1--3--1-1-1-----1-1--4--3--1--3--1-1-1--4--3--|
pm . . . . . . . . . . |

|-----------------------------------------------------|
|-----------------------------------------------------|
|------------------ph---------------------------------| Gtr.
|-------------------2br-------------------------------| 2
|-3--2-----2-----------------3--2-----2---------2--1--|
|-------5-----5-5-5-----5-5--------5-----5-5-5--------|

Like us on Facebook.....
-> Loading Time :0.0061 sec