Again Tabs & Lyrics by Fuel

Again

guitar tabs lyrics

Fuel

Album : Angels & Devils rock PlayStop



This is probably my favorite song off the new album, and for some reason i was just
to it today and it all clicked in my mind right away. the intro part I'm tabbing is
played on either a cello or a viola, but it can easily be played on guitar. The song is
6/8 time. Listen to it for the rhythm. Standard Tuning.

Intro:
e|--------------------------------|
B|--------------------------------|
G|--------------------------------|
D|------0-------------------------|

A|2--4-----4--2--0--2-------------|
E|---------------------2----------|

e|--------------------------------|
B|--------------------------------|
G|--------------------------------|
D|------0-------------------------|
A|2--4-----4--2--0--2-------------|
E|--------------------------------|

First Verse:
Bm D A
Guess the lies called your name again
Bm D A
The black you keep inside
Bm D A
Reared its ugly head again
Bm D A
I wash my hands this time


Chorus (with some gusto):
Bm D A Em
If I never see your face again
Bm D A Em
Hope it eats you up inside
Bm D A Em
If I never feel this place again
Bm D A Em
At least I'll feel my pride, oh

Intro x1

Second Verse:
Bm D A
Apologies only now condemn
Bm D A
Honesty slips by
Bm D A
Bitter now and you were bitter then
Bm D A
Darkness is your guide

Chorus:
Bm D A Em
If I never see your face again
Bm D A Em
Hope it eats you up inside
Bm D A Em
If I never feel this place again
Bm D A Em
At least I'll feel my pride

(sorry, couldn't get the bridge, maybe I'll update later)

Final Chorus:
Bm D A Em
If I never see your face again
Bm D A Em
Hope it eats you up inside
Bm D A Em
If I never feel this place again
Bm D A Em
At least I'll feel my pride

Bm, D, A, Em into end

Like us on Facebook.....
-> Loading Time :0.0104 sec