Accidents on Purpose Tabs & Lyrics by Unwound

Accidents on Purpose

guitar tabs lyrics

Unwound

Album : The Future of What post-hardcore PlayStop



Accidents On Purpose

The guitar part during the verse - decide which version
you prefer.

Version 1 - the way it sounds to me:
----|-------------7-----------0-----------0---0---0---|
----|-------------8-----------3-----------2---2---2---|
----|-------------9-----------4-----------3---3---3---|
----|-------------------------5-----------2---0-------|

----|---------------------------------------------2---|
----|-------------------------------------------------|
lyric: ac - tors...
Version 2 - sent to me by someone named LuckyAcid:
----|-------------7-----------------------------------|
----|-------------8-----------------------------------|
----|-------------9-----------7-----------6---6---6---|
----|-------------------------9-----------8---8---8---|
----|-------------------------9-----------8---8---8---|
----|-------------------------------------------------|
Version 3 - sent to me by a person named zzzz:
----|-------------7-----------0-----------0---0---0---|
----|-------------8-----------3-----------2---2---2---|
----|-------------9-----------4-----------3---3---3---|
----|-------------------------2-----------2-----------|
----|-----------------------------------------4---2---|
----|-------------------------------------------------|

The bass part during the verse

----|-------------------------------------------------|
----|-------------------------------------------------|
-0-1|---------0-1---------0-1---------0-1---------0-1-|
----|-0---0-------0---0-------0---0-------3---3-------|

Chorus
bass
----|-------------------------------------------------|
----|-------------------------------------------------|
-1-2|-4---4---1-2-4---4---1-2-4---4---1-2---------1-2-|
----|-------------------------------------3---3-------|

guitar - I can't make it out but if you play these chords it kinda works
----|---------0-----------0-----------0---------------|
----|---------0-----------0-----------0---------------|
----|-6---6---6---6---6---6---6---6---6---------------|
----|-6---6-------6---6-------6---6-------5---5---5---|
----|-4---4-------4---4-------4---4-------5---5---5---|
----|-------------------------------------3---3---3---|
lyric: it was an accident

Last part:
bass
----|-------------------------------------------------|
----|-------------------------------------------------|
-0-1|---------0-1---------0-1---------0-1---------0-1-|
----|-0---0-------0---0-------0---0-------3---3-------|

guitar 1 - this almost sounds right
----|-------------------------------------------------|
----|-------------------------------------------------|
----|-------------------------------------------------|
----|-------------------------------------------------|
-2-3|---------2-3---------2-3---------2-3---------2-3-|
----|-0---0-------0---0-------0---0-------3---3-------|

guitar 2 - this almost sounds right
----|-7-----------7-----------7-------7---8---0---8---|
----|-8-----------8-----------8-------8---9---9---9---|
----|-9-----------9-----------9-------9--10--10--10---|
----|-------------------------------------------------|
----|-------------------------------------------------|
----|-------------------------------------------------|
lyric: we all make mistakes

Last chord?
|--0--|
|--3--|
|--4--|
|--5--|
|-----|
|-----|


Like us on Facebook.....
-> Loading Time :0.0159 sec