A Paler Shade of Death Tabs & Lyrics by Witchery

A Paler Shade of Death

guitar tabs lyrics

Witchery

Album : Dead, Hot and Ready thrash metal PlayStop



WITCHERY - A PALER SHADE OF DEATH
From the Album DEAD, HOT & READY
Copyright 1999 NECROPOLIS RECORDS

Version 1.0 - JUNE 2000

Transcribed by: Haris Durakovic

For Questions, Comments, Newest Version, or Corrections contact
Haris Durakovic: at [email protected]


Check Out Death Warp, With More Transcriptions On It:
http://tiger.towson.edu/~dalvis1

Join the death/black tab emailing list by emailing

.. - palm mute / - slide up to
\ - slide down to ~ - vibrato
h - hammer on b - bend
p - pull off Suffixes for bend
ph - pinch harmonic
f - full bend h - half bend
* - see comment r - release t - tap bend
X - percussion mute ~ - vibrato bend
@ - slight palm mute () - ghost note, sustained note



Witchery - A paler shade of death



Riff 1
little distorted with flanger fx
|-----------------------------------------------------------------|
|-----------------------------------------------------------------|
|-----------------------------------------------------------------|
|-----------------------------------------------------------------|
|----4-3-0-----4-3-0-----4-3-0-----4-3-0-----4-3-0-----4-3-0------|
|-2---------2---------2---------2---------2---------2-------------|


Riff 2
|-----------------------------------------------------------------|
|-----------------------------------------------------------------|
|-2--2--2-5-5-5-5-4-4-4-3--2--------------------------------------|
|-2--2--2------------------2-5------------------------------------|
|-0--0--0-3-3-3-3-2-2-2-1--0-5------------------------------------|
|----------------------------3------------------------------------|

Chorus
|-----------------------------------------------------------------|
|-5--5-5-5-5-5--------------------5--5-5-5-5-5--------------------|
|-5--5-5-5-5-5----2--2-2-2-2-2-77-5--5-5-5-5-5----2--2-2-2-2-2----|
|-5--5-5-5-5-5-55-2--2-2-2-2-2-77-5--5-5-5-5-5-55-2--2-2-2-2-2-55-|
|-3--3-3-3-3-3-55-0--0-0-0-0-0-55-3--3-3-3-3-3-55-0--0-0-0-0-0-55-|
|--------------33------------------------------33--------------33-|



|-----------------------------------------------------------------|
|----------------------------------9--9-9-9-----------------------|
|-10--10-10-10-10-10------9--9-9-9-9--9-9-9-----------------------|
|-10--10-10-10-10-10-1212-9--9-9-9-6--6-6-6-----------------------|
|-8---8--8--8--8--8--1212-7--7-7-7-7--7-7-7-----------------------|
|--------------------1010-----------------------------------------|

Rhythm on solo (coolest part ever)
|-----------------------------------------------------------------|
|-----------------------------------------------------------------|
|-2---------------2---------------2-------2-----------------------|
|-2--4-4-4-4-4-44-2--4-4-4-4-4-44-2--2----2--2--------------------|
|------------------------------------2-------2--------------------|
|------------------------------------0-------0--------------------|

Riff 3
|----------------------|
|----------------------|
|----------------------|
|----------------------|
|-7/9-7/9-7/9-7/9------|
|-5/7-5/7-5/7-5/7-2222-|
....

|----------------------|
|----------------------|
|-2---2----------------|
|-2---2----------------|
|-0---0----------------|
|---2----2222222222----|
. ..........

Like us on Facebook.....
-> Loading Time :0.0111 sec