A Journey Into Darkness Tabs & Lyrics by Six Feet Under

A Journey Into Darkness

guitar tabs lyrics

Six Feet Under

Album : Warpath death metal PlayStop



Tabbed by:THE SANDMAN
Email:[email protected]

Tuning:D G C F A D



|----------------------|
|----------------------|
|----------------------|

|---------5---------5--|
|---------5---------5--|
|-0-0-0-0-3--0--0-0-3--|
....... . ...


|-----------------------------|
|-12-----11-----10-----9------|
|-14b16--13b15--12b14--11b13--|
|-----------------------------|
|-----------------------------|
|-----------------------------|


|-----------------------|
|-----------------------|
|-----------------------|
|-2-2--------2-2--------|
|-2-2--------2-2--------|
|-0-0--------0-0--------|


|---------------------------------|
|---------------------------------|
|---------------------------------|
|-3-------6-------3-------5-------|
|-3-------6-------3-------5-------|
|-1-0-0-0-4-0-0-0-1-0-0-0-3-0-0-0-|
..... ..... ..... .....


|--------|
|--------|
|--------|
|-2-2----|
|-2-2----|
|-0-0----|

Like us on Facebook.....
-> Loading Time :0.0132 sec