24 Hours Ago Tabs & Lyrics by Savatage

24 Hours Ago

guitar tabs lyrics

Savatage

Album : From the Gutter to the Stage: The Best of Savatage 1981-1995 (disc 1) heavy metal PlayStop



three times
E-]----------------------------------------------------------------------------|
B-]-----------------------10-----8--------------------10--12--10---8-----------|
G-]o-----------------------9-----7---------------------9--11---9---7----------o|
D-]o-----------------------7-----5---------------------7---9---7---5----------o|
A-]--------0--0--0--0--0------------0--0--0--0--0------------------------------|
E-]----------------------------------------------------------------------------|


E-]||--|-----------------------------------------------------------------------|

B-]||--|------------------10-----8--------------------10--12--10---8-----------|
G-]||o-|o------------------9-----7---------------------9--11---9---7-----------|
D-]||o-|o------------------7-----5---------------------7---9---7---5-----------|
A-]||--|---0--0--0--0--0------------0--0--0--0--0------------------------------|
E-]||--|-----------------------------------------------------------------------|

1. Behind the wheel just went to lunch...
2. Got to escape can't take any more...
E-]----------------------------------------------------------------------------|
B-]----------------------------------------------------------------------------|
G-]---------------------------------------------------------------------------o|
D-]-------5-------------------------------------------------------------------o|
A-]-------5--------------------------------------------------------------------|
E-]-------3--------------------------------------------------------------------|


E-]----------------------------------------------------------------------------|
B-]-----------------------10-----8--------------------10--12--10---8-----------|
G-]o-----------------------9-----7---------------------9--11---9---7----------o|
D-]o-----------------------7-----5---------------------7---9---7---5----------o|
A-]--------0--0--0--0--0------------0--0--0--0--0------------------------------|
E-]----------------------------------------------------------------------------|

1. I rome the night no end in sight......
2. I got blood-shot eyes.....
E-]----------------------------------------------------------------------------|
B-]----------------------------------------------------------------------------|
G-]o--------------------------------------------------------------------------o|
D-]o-----------5----4---------4------------4---------4----7-------------------o|
A-]------------5----4---------4------------4---------4----7--------------------|
E-]------------3----2----0----2------------2----0----2----5--------------------|

1. Insaine......
2. no pain......
E-]----------------------------------------------------------------------------|
B-]-----------------------10-----8--------------------10--12--10---8-----------|
G-]o-----------------------9-----7---------------------9--11---9---7----------o|
D-]o-----------------------7-----5---------------------7---9---7---5----------o|
A-]--------0--0--0--0--0------------0--0--0--0--0------------------------------|
E-]----------------------------------------------------------------------------|


E-]----------------------------------------------------------------------------|
B-]----------------------------------------------------------------------------|
G-]---------------5------------------------------------------------------------|
D-]---------------3------------------8-----------------6-----------------------|
A-]----------------------------------6-----------------4-----------------------|
E-]----------------------------------------------------------------------------|

I'm moving fast forget the past burning tred.... five times
E-]----------------------------------------------------------------------------|
B-]----------------------------------------------------------------------------|
G-]o--------------------------------------------------------------------------o|
D-]o--------------------------------------------------------------------------o|
A-]-------0------5------7------9~~~ ------7------9------7----------------------|
E-]----------------------------------------------------------------------------|

24 Hours ah...
E-]----------------------------------------------------------------------------|
B-]----------------------------------------------------------------------------|
G-]--------4-------------------------------------------------------------------|
D-]--------4-------------------------------------------------------------------|
A-]--------2-------------------------------------------------------------------|
E-]----------------------------------------------------------------------------|

____________________________________________________________________________
| 1st |
| Go ! |
E-]---------------------------------------------------------------------------||
B-]-----------------------10-----8--------------------10--12--10---8----------||
G-]------------------------9-----7---------------------9--11---9---7---------o||
D-]------------------------7-----5---------------------7---9---7---5---------o||
A-]--------0--0--0--0--0------------0--0--0--0--0-----------------------------||
E-]---------------------------------------------------------------------------||

____________________________________________________________________________
| 2nd |
| Go ! four times |
E-]----------------------------------------------------------------------------|
B-]-----------------------10-----8--------------------10--12--10---8-----------|
G-]o-----------------------9-----7---------------------9--11---9---7----------o|
D-]o-----------------------7-----5---------------------7---9---7---5----------o|
A-]--------0--0--0--0--0------------0--0--0--0--0------------------------------|
E-]----------------------------------------------------------------------------|

GET IT!
E-]----------------------------------------------------------------------------|
B-]----------------------------------------------------------------------------|
G-]-----[H]------[H]------[H]------[H]------[H]------[H]------[H]-----[H]------|
D-]------3~~~ ----3~~~ ----3~~~ ----3~~~ ----3~~~ ----3~~~ ----3~~~ ---3~~~ ---|
A-]----------------------------------------------------------------------------|
E-]--1--------1--------1--------1--------1--------1--------1-------1-----------|


E-]----------------------------------------------------------------------------|
B-]-----------------------10-----8--------------------10--12--10---8-----------|
G-]o-----------------------9-----7---------------------9--11---9---7----------o|
D-]o-----------------------7-----5---------------------7---9---7---5----------o|
A-]--------0--0--0--0--0------------0--0--0--0--0------------------------------|
E-]----------------------------------------------------------------------------|

Yhea
E-]----------------------------------------------------------------------------|
B-]----------------------------------------------------------------------------|
G-]-----[H]------[H]------[H]------[H]------[H]------[H]------[H]-----[H]------|
D-]------3~~~ ----3~~~ ----3~~~ ----3~~~ ----3~~~ ----3~~~ ----3~~~ ---3~~~ ---|
A-]----------------------------------------------------------------------------|
E-]--1--------1--------1--------1--------1--------1--------1-------1-----------|

Oh yhea oh
E-]----------------------------------------------------------------------------|
B-]-----------------------10-----8--------------------10--12--10---8-----------|
G-]o-----------------------9-----7---------------------9--11---9---7----------o|
D-]o-----------------------7-----5---------------------7---9---7---5----------o|
A-]--------0--0--0--0--0------------0--0--0--0--0------------------------------|
E-]----------------------------------------------------------------------------|

E-]----------------------------------------------------------------------------|
B-]----------------------------------------------------------------------------|
G-]---------------5------------------------------------------------------------|
D-]---------------3------------------8-----------------6-----------------------|
A-]----------------------------------6-----------------4-----------------------|
E-]----------------------------------------------------------------------------|

I'm moving fast forget the past burning tred.... five times
E-]----------------------------------------------------------------------------|
B-]----------------------------------------------------------------------------|
G-]o--------------------------------------------------------------------------o|
D-]o--------------------------------------------------------------------------o|
A-]-------0------5------7------9~~~ ------7------9------7----------------------|
E-]----------------------------------------------------------------------------|

24 Hours ah...
E-]----------------------------------------------------------------------------|
B-]----------------------------------------------------------------------------|
G-]--------4-------------------------------------------------------------------|
D-]--------4-------------------------------------------------------------------|
A-]--------2-------------------------------------------------------------------|
E-]----------------------------------------------------------------------------|


E-]----------------------------------------------------------------------------|
B-]----------------------------------------------------------------------------|
G-]----------------------------------------------------------------------------|
D-]----------------------------------------------------------------------------|
A-]----------------------------------------------------------------------------|
E-]---3---2---3---3---3---0---2---3---5---3---2---3---3---3---0---2---3---5----|

E-]----------------------------------------------------------------------------|
B-]-------------3--------------X\--/X-----3-----[H]----------------------------|
G-]-------------3--------------X\--/X-----3------3'~~~~~ ----------------------|
D-]--X\---------3----3~~~ -----X\--/X-----3----------------3~~~~ --------------|
A-]--X\------------------------------------------------------------------------|
E-]--X\------------------------------------------------------------------------|
| |
E-]----------------------------------------------------------------------------|
B-]----------------------------------------------------------------------------|
G-]----------------------------------------------------------------------------|
D-]----------------------------------------------------------------------------|
A-]----------------------------------------------------------------------------|
E-]---3---2---3---3---3---0---2---3---5---3---2---3---3---3---0---2---3---5----|


(mutted).....................................
E-]----------------------------------------------------------------------------|
B-]----------------------------------------------------------------------------|
G-]----------------------------------------------------------------------------|
D-]----------5----2------------------------------------------------------------|
A-]----------------------5-----3-----2-----------------------------------------|
E-]-------------------------------------------5------3~~~~~ -------------------|
| |
E-]----------------------------------------------------------------------------|
B-]----------------------------------------------------------------------------|
G-]-----------------------------------o//o-------------------------------------|
D-]----------------------------------------------------------------------------|
A-]----------------------------------------------------------------------------|
E-]----------------------------------------------------------------------------|


s s s s s s s s
E-]--2-\-3-\-5---5-\-7-\-8---8-\-10-\-12---12-\-14-\-15--15--17'`~~~ -17'`~~~ -|
B-]----------------------------------------------------------------------------|
G-]----------------------------------------------------------------------------|
D-]----------------------------------------------------------------------------|
A-]----------------------------------------------------------------------------|
E-]----------------------------------------------------------------------------|
| |
E-]----------------------------------------------------------------------------|
B-]----------------------------------------------------------------------------|
G-]-----------------------------------o//o-------------------------------------|
D-]----------------------------------------------------------------------------|
A-]----------------------------------------------------------------------------|
E-]----------------------------------------------------------------------------|

E-]-----------------------s----------------------------------------------------|
B-]----------17~~~~ ------/-20------15-----19-----13-----17-----12-------------|
G-]----------------------------------------------------------------------------|
D-]----------------------------------------------------------------------------|
A-]----------------------------------------------------------------------------|
E-]----------------------------------------------------------------------------|
| |
E-]----------------------------------------------------------------------------|
B-]----------------------------------------------------------------------------|
G-]-----------------------------------o//o-------------------------------------|
D-]----------------------------------------------------------------------------|
A-]----------------------------------------------------------------------------|
E-]----------------------------------------------------------------------------|


p p p p p p p p p
E-]---^^-------^^-------^^-------^^------^^------^^-----^^-----^^----^^--|-----|
B-]-15--12---14--11---13--10---12--9---11--8---10--7---9--6---8--5--7--4-|-8~~ |
G-]----------------------------------------------------------------------|-----|
D-]----------------------------------------------------------------------|-----|
A-]----------------------------------------------------------------------|-----|
E-]----------------------------------------------------------------------|-----|
| | |
E-]----------------------------------------------------------------------|-----|
B-]----------------------------------------------------------------------|-----|
G-]-------------------------------o//o-----------------------------------|o//o-|
D-]----------------------------------------------------------------------|-----|
A-]----------------------------------------------------------------------|-----|
E-]----------------------------------------------------------------------|-----|


E-]---h--t--p--h--t--p--h--t--p--h--t--p--h--t--p--h--t--p--h--t--p--h--t------|
B-]---^--^--^--^--^--^--^--^--^--^--^--^--^--^--^--^--^--^--^--^--^--^--^------|
G-]-12-17-19-12-17-19-12-17-19-12-17-19-12-17-19-12-17-19-12-17-19-12-17-19----|
D-]----------------------------------------------------------------------------|
A-]----------------------------------------------------------------------------|
E-]----------------------------------------------------------------------------|
E-]----------------------------------------------------------------------------|
B-]----------------------------------------------------------------------------|
G-]-----------------------------------o//o-------------------------------------|
D-]----------------------------------------------------------------------------|
A-]----------------------------------------------------------------------------|
E-]----------------------------------------------------------------------------|

24 Hours Ago
E-]----------------------------------------------------------------------------|
B-]---14~~~ ----14' - `14---12-----------------------[H]-----------------------|
G-]-------------------------------14--12--11---------11'`-'`-'`----------------|
D-]----------------------------------------------------------------------------|
A-]----------------------------------------------------------------------------|
E-]----------------------------------------------------------------------------|
| |
E-]----------------------------------------------------------------------------|
B-]----------------------------------------------------------------------------|
G-]-----------------------------------o//o-------------------------------------|
D-]----------------------------------------------------------------------------|
A-]----------------------------------------------------------------------------|
E-]----------------------------------------------------------------------------|


E-]-------------------|--------------------------------------------------------|
B-]-------------------|-------------3-----------------------3------------------|
G-]-------------------|-------------3--------0--------------3-----0------------|
D-]-------------------|-------------3-----------------------3------------------|
A-]------------s------|--------------------------------------------------------|
E-]-----3~~~~ -\-0----|--------------------------------------------------------|
| |
E-]-------------------|--------------------------------------------------------|
B-]-------------------|--------------------------------------------------------|
G-]-------o//o--------|-----------------------------o//o-----------------------|
D-]-------------------|--------------------------------------------------------|
A-]-------------------|--------------------------------------------------------|
E-]-------------------|--------------------------------------------------------|


E-]----------------------------------------------------------------------------|
B-]-----------3---------------------3------------------------3-----------------|
G-]-----------3-----------0---------3---------0--------------3------0----------|
D-]-----------3---------------------3------------------------3-----------------|
A-]----------------------------------------------------------------------------|
E-]----------------------------------------------------------------------------|
| |
E-]----------------------------------------------------------------------------|
B-]----------------------------------------------------------------------------|
G-]-----------------------------------o//o-------------------------------------|
D-]----------------------------------------------------------------------------|
A-]----------------------------------------------------------------------------|
E-]----------------------------------------------------------------------------|


E-]----------------------------------------------------------------------------|
B-]-------3----------3-----------3---------3---------3---------3---------------|
G-]-------3----0-----3-----0-----3----0----3-----0---3----0----3---0-----------|
D-]-------3----------3-----------3---------3---------3---------3---------------|
A-]----------------------------------------------------------------------------|
E-]----------------------------------------------------------------------------|
| |
E-]----------------------------------------------------------------------------|
B-]----------------------------------------------------------------------------|
G-]-----------------------------------o//o-------------------------------------|
D-]----------------------------------------------------------------------------|
A-]----------------------------------------------------------------------------|
E-]----------------------------------------------------------------------------|


E-]----------------s-------------------s-------------------s-------------------|
B-]--8---8---8---8-\-10---10---10---10-\-12---12---12---12-\-14---14---14---14-|
G-]----------------------------------------------------------------------------|
D-]----------------------------------------------------------------------------|
A-]----------------------------------------------------------------------------|
E-]----------------------------------------------------------------------------|
| |
E-]----------------------------------------------------------------------------|
B-]------------12--14--15--14--12--------------12--14--15--14--12--------------|
G-]----12--14----------------------14--12--14----------------------14----------|
D-]----------------------------------------------------------------------------|
A-]----------------------------------------------------------------------------|
E-]----------------------------------------------------------------------------|


E-]---s-------------------s-------------------s-------------------s------------|
B-]---\-15---15---15---15-\-17---17---17---17-\-19---19---19---19-\------------|
G-]----------------------------------------------------------------------------|
D-]----------------------------------------------------------------------------|
A-]----------------------------------------------------------------------------|
E-]----------------------------------------------------------------------------|
| |
E-]----------------------------------------------------------------------------|
B-]------------12--14--15--14--12--------------12--14--15--14--12--------------|
G-]----12--14----------------------14--12--14----------------------14----------|
D-]----------------------------------------------------------------------------|
A-]----------------------------------------------------------------------------|
E-]----------------------------------------------------------------------------|


E-]----------------------------------------------------------------------------|
B-]---20~~~~ ------------------------------------------------------------------|
G-]----------------------------------------------------------------------------|
D-]----------------------------------------------------------------------------|
A-]----------------------------------------------------------------------------|
E-]----------------------------------------------------------------------------|
| |
E-]----------------------------------------------------------------------------|
B-]------------12--14--15--14--12--------------12--14--15--14--12--------------|
G-]----12--14----------------------14--12--14----------------------14----------|
D-]----------------------------------------------------------------------------|
A-]----------------------------------------------------------------------------|
E-]----------------------------------------------------------------------------|

seven times then fade
E-]----------------------------------------------------------------------------|
B-]----------8-----7-----8-----8-----8-----------7-----8-----10----------------|
G-]o--------------------------------------10----------------------------------o|
D-]o--------------------------------------------------------------------------o|
A-]----------------------------------------------------------------------------|
E-]----------------------------------------------------------------------------|
| |
E-]----------------------------------------------------------------------------|
B-]----------------------------------------------------------------------------|
G-]o--------------------------------------------------------------------------o|
D-]o--------------------------------------------------------------------------o|
A-]----------------------------------------------------------------------------|
E-]----------3-----2-----3-----3-----3-----0-----2-----3------5----------------|

Like us on Facebook.....
-> Loading Time :0.0102 sec