Yeah Baby! Tabs & Lyrics by Screeching Weasel

Yeah Baby!

guitar tabs lyrics

Screeching Weasel

Album : Screeching WeaselPlayStop


-------------------------------------------------------------------------------
YEAH BABY - Screeching Weasel
-------------------------------------------------------------------------------

YEAH BABY
D C G
E2-2-2-2-2-2-2-----------1------------|
b3-3-3-3-3-3-3----1-1----0------------|
g2-2-2-2-2-2-2----0-0----0------------|
d0-0-0-0-0-0-0----2-2----0------------|

a------------------------3-3----2-----|
e-------------------------------3-----|

that it! plus a little piano.

if your going to use this on another web site please give me the credit.

tabed by Clayton Zacharias.
Biff_18_@hotmai.com

Like us on Facebook.....
-> Loading Time :0.0096 sec