Xnoybis Tabs & Lyrics by Godflesh

Xnoybis

guitar tabs lyrics

Godflesh

Album : Selfless industrial metal PlayStop


Tabbed by: m1n0r_Threat
[email protected]

Godflesh
Song: Crush My Soul
Album: Selfless

Use a good amount of distortion/fuzz. Best played through a Marshall. Awesome and easy to play.

Tuning: BF#BEG#c#

p pinch harmonic
* natural harmonic
~ vibrato

Verse 1a
c#|-----------------------------------|
G#|-----------------------------------|
E |-----------------------------------|
B |----------------0--00-0--0-0-0-----|
F#|----------------0--00-0--0-0-0-----|
B |--0--0--5*--4*--0--00-0--0-0-0-----|

Verse 1b
|-----------------------------------|
|-----------------------------------|
|-----------------------------------|
|----------------0--00-0--3-3-3-----|
|----------------0--00-0--3-3-3-----|
|--0--0--4*--3*--0--00-0--3-3-3-----|

Verse 2a
|-----------------------|------------------------|
|-----------------------|------------------------|
|-----------------------|------------------------|
|-----------------------|------------------------|
|-----------------------|------------------------|
|--0-0-4-5--4--4-4-4-4-4|--0-0-4-5--4--4-5*-5*~--|

Verse 2b
|-----------------------|------------------------|
|-----------------------|------------------------|
|-----------------------|------------------------|
|-----------------------|------------------------|
|-----------------------|------------------------|
|--0-0-4-5--4--4-4-3-3-3|--0-0-4-5--4--4-5*-5*~--|

Verse 3
|----------------------------|------------------------------|
|----------------------------|------------------------------|
|----------------------------|------------------------------|
|----------------------------|------------------------------|
|------5-5-4--------5-5-0----|------5-5-4--------4-5-0------|
|--5-4----------5-4----------|--5-4----------5-4------------|

Song structure:
Verse 1a - 4x
Verse 1b - 4x Timing is not exact! Please listen
Verse 1a - 4x to the song to for the correct timing.
Verse 1b - 4x Note: the album version is 5:55 while
Verse 2a - 1x the version on In All Languages is
Verse 2b - 1x 5:20. Enjoy! Questions/comments?
Verse 1a - 4x Email me.
Verse 1b - 4x
Verse 1a - 4x
Verse 1b - 4x
Verse 2a - 1x
Verse 2b - 1x
Verse 3 - 4x
Repeat Verse 1a&b - 2x
Verse 2 - 2x
Verse 3 - 4x (or until song ends at ~5:55)

Like us on Facebook.....
-> Loading Time :0.0191 sec