Wished for You Tabs & Lyrics by Squirrel Nut Zippers

Wished for You

guitar tabs lyrics

Squirrel Nut Zippers

Album : The Inevitable jazz PlayStop


intro:
e---2--0--2----4------9--------9-----------5---5---5---5-----9----9----9----9--|
b--------------------------7-------7-------------------------------------------|
g---2--------------------------------------4---4-------4-----------------------|
d--------------4------9----------------------------4------------------------6--|
a------------------------------------------------------------------------------|
E------------------------------------------------------------0----4----7-------|

A7 f#m7 bm7 bm7 // bm7
E7 E7


Verse:
A7 f#m7 bm7 bm7 // bm7
E7 E7 2x

bm7 C#7 f#m7 C#7 f#m7 F#7

bm7 C#7 f#m7 B7 E7 E7

A7 f#m7 bm7 bm7 // bm7 E7

A7 f#m7 bm7 bm7 // bm7
E7 E7 2x

bm7 C#7 f#m7 C#7 f#m7 F#7

bm7 C#7 f#m7 B7 E7 E7

A7 f#m7 bm7 bm7 // bm7 E7
Ab7 G7 Gb7
^ ^ ^ ^
16th notes

Ending: bm7 E7 Ab7 A7

slide up
-13----14-----------------|
-13----14-----------------|
-13----14-----------------|
--------------------------|
--------------------------|
--------------------------|

Like us on Facebook.....
-> Loading Time :0.0214 sec