Wish You Were Here Tabs & Lyrics by Catherine Wheel

Wish You Were Here

guitar tabs lyrics

Catherine Wheel

Album : Like Cats and Dogs 90s PlayStop



Date: Mon, 26 Jan 1998 16:22:54 -0800
From: Kristina Baliunas
Subject: guitar tabs

Wish You Were Here
Performed by the Catherine Wheel
>From the album Like Cats and Dogs
Tabbed by Bill Katsioutas and Jonas Baliunas
E-mail: Krisjohn@interlog.com


This was a cover of the old Pink Floyd song done in 1975.
However, I think this acoustic version sounds much better.
Ther is a nice harmonica that accompanies this song, but I
do not know how to play harmonica. Sorry if the lyrics are
off!

Chords Used:

Em 022033
G 320033
Asus4 xx2233
Am x02210
C x32010
D xxx232

Intro

Em G
e|----------3-3--3---------3--3-3---|
b|----------3-3--3---------3--3-3---|
g|----------0-0--0-0-------0--0-0---| Repeat x 2
d|------0h2----------2-0---0--------|
a|--0h2------------------2-2--------|
E|-------------------------3------3-|

Em Am G
e|----------3-3--3---------3-3--3--3--3--3-|
b|----------3-3--3---------3-3--3--3--3--3-|
g|----------0-0--0---------2-2--2--2--2--0-|
d|------0h2--------2p0-----2-2--2--2--2--0-|
a|--0h2----------------2p0---------------2-|
E|---------------------------------------3-|

1st Verse

C
So,
D
so you think could tell,
C
heaven from hell,
G
blue skies from pink.
D
Can you tell a great fear,
C
from a cold steel rail,
Am
a smile from a vail,
G
do you think can tell.
C
Did they get you to trade,
D
your heroes for ghosts,
C
hot ashes for trees,
G
hot air for a cool breeze.
D
Cold comfort for change,
C
did you exchange,
Am
a walk on part in the war,
G
for a lead role in the cage.

Interlude (Harmonica solo)

Em G Em G Em Asus4 Em Asus4 G

2nd Verse

C
How I wish,
D
how I wish you were here,
C
where just two lost souls,

living in a fish bowl.
G
Year after year,
D
going over the same old ground,
C Am
you have to further the same old fear,
G
wish you were here.
D C G
I, wish you were here.
D C G
I, wish you were here.
D C G
I, wish you were here.
D C G
I, wish you were here.

That's It! E-mail me with comments. I would like to know who is getting
this stuff.

Like us on Facebook.....
-> Loading Time :0.0090 sec