What Was Wound Tabs & Lyrics by Unwound

What Was Wound

guitar tabs lyrics

Unwound

Album : New Plastic Ideas real post-hardcore PlayStop


Song: What Was Wound
Artist: Unwound
Album: New Plastic Ideas
Tab author: mito.gegic@gmail.com
Tuning: STANDARD
Notes: http://www.youtube.com/watch?v=3-ZStXbsEzo


Intro part I:2x

e-----------------------------|
B-------0---3p0-0-5-0---------|
G--x-x--x---x---x-x-x-x-x-----|
D--2-2--4---4---4-5-4-2-2-----|
A--2-2----------------2-2-----|
E--0-0----------------0-0-----|

Intro part II/3rd time:

e-----------------------------------|
B-------0---3p0---------------------|
G--x-x--x---------------------------|
D--2-2--4----------!VOLUMNE ON!-----|
A--2-2------------------------------|
E--0-0------------------------------|

Verse part I:8x

e---------------------------|
B-------3---3p0-0-5p0-0-----|
G--x-x--0---x---x-x---x-----|
D--2-2--4---4---4-4---4-----|
A--2-2--5-------------------|
E--0-0----------------------|

Verse part II(strum fast, each chord 1 bar):2x

e--0---(0)---x-----< Fill I: 1 bar >-----------|
B--0----0----3-------3b----3b----3b---3b------------|
G--2----3----0-------0-----0-----0----0-------------|
D--2----4----0--------------------------------------|
A--0----4----x--------------------------------------|
E-------2----3-----3-----3-----3----3---------------|

Verse part III/end:

e-------------------------|
B--------0---0--0---------|
G-------(4)-(6)(4)--------|
D--2-2---5-/-7--5---------|
A--2-2--------------------|
E--0-0--------------------|

Repeate Verse I(8x) and III() and end with a 'double E5' riff + feedback

Post Verse:4x

e-----------------------|
B-------0---0---0-------|
G-------x---x---x-------|
D--2-2--4---5p4-4h5-----|
A--2-2------------------|
E--0-0------------------|

Play this 'double E5' riff:4x

e-------------------------------------------------|
B---(3)--------this note is optional--------------|
G--x-x--x-----------------------------------------|
D--2-2--x----------------------------feedback-----|
A--2-2--x-----------------------------------------|
E--0-0--------------------------------------------|

Verse I(8x) and Verse II (2x)/second time on Verse II use Fill II:

e--< Fill II: 1 bar >-------------------------------|
B--12-12-12-12-11-11-11-11--------------------------------|
G--0--0--0--0--0--0--0--0---------------------------------|
D--x--x--x--x--x--x--x--x---aprox. hits/listen to song----|
A--10-10-10-10-10-10-10-10--------------------------------|
E---------------------------------------------------------|

END with a 'double E5' riff + feedback!

Tablature explanation:
######################
B Full Bend
b 1/2 Bend
bb 1/4 Bend
~~~~~ Tremolo
^(#) Bend to (#)
/ Slide up
\ Slide down
h Hammer-on
p Pull-off
(#) Ghost note
% Rest
######################

Like us on Facebook.....
-> Loading Time :0.0078 sec