What Dwells Within Tabs & Lyrics by Bolt Thrower

What Dwells Within

guitar tabs lyrics

Bolt Thrower

Album : War Master death metal PlayStop


Bolt Thrower
What Dwells Withtin
War Master
Tabbed By Kevin Cruz

Tune All strings down One-Whole Step: D A F G C D

Guitar 1
D:-----------------|---------------------|------------------------------|--|
A:-----------------|---------------------|------------------------------|--|

F:-----------------|---------------------|------------------------------|2x|
G:-----------------|---------------------|------------------------------|--|
C:-7-8-------------|-8-----7-----8---7-8-|-------------8888-------------|--|
D:-----000-000-000-|---000---000---0-----|-000-000-000-----888877779999-|--|
... ... ... ... ... . ... ... ... ................


Guitar 1
D:-----------------|---------------------|------------------------------|--|
A:-----------------|---------------------|------------------------------|--|
F:-----------------|---------------------|------------------------------|--|
G:-----------------|---------------------|------------------------------|--|
C:-7-8-------------|-8-----7-----8---7-8-|-------------8888-------------|--|
D:-----000-000-000-|---000---000---0-----|-000-000-000-----888877779999-|--|
... ... ... ... ... . ... ... ... ................ |6x|
Guitar 2 |--|
D:-----------------|---------------------|------------------------------|--|
A:-----------------|---------------------|------------------------------|--|
F:-----------------|---------------------|------------------------------|--|
G:-----------------|---------------------|------------------------------|--|
C:-7-8-------------|-8-----7-----8---7-8-|-------------8888-------------|--|
D:-----000-000-000-|---000---000---0-----|-000-000-000-----888877779999-|--|
... ... ... ... ... . ... ... ... ................

Guitar 1
D:------------------------|------------------------|------|
A:------------------------|------------------------|------|
F:------------------------|------------------------|------|
G:-----------------553000-|-----------------553000-|------|
C:----------553000--------|----------553000--------|------|
D:-22222222---------------|-22222222---------------|------|
........ .... .... ........ .... .... |------|
|--3X--|
Guitar 2 |------|
D:------------------------|------------------------|------|
A:------------------------|------------------------|------|
F:------------------------|------------------------|------|
G:-----------------553000-|-----------------553000-|------|
C:----------553000--------|----------553000--------|------|
D:-22222222---------------|-22222222---------------|------|
........ .... .... ........ .... ....

Guitar 1
D:----------------------------------|-----------------------------------|--|
A:----------------------------------|-----------------------------------|--|
F:----------------------------------|-----------------------------------|--|
G:----------------------------------|-----------------------------------|--|
C:----------333-222-555-333-222-333-|----------333-222-555-333-222-333--|--|
D:-222222-55------------------------|-222222-55-------------------------|--|
...... ..... ... ... ... ... ... ...... ..... ... ... ... ... ... |2x|
Guitar 2 |--|
D:----------------------------------|-----------------------------------|--|
A:----------------------------------|-----------------------------------|--|
F:----------------------------------|-----------------------------------|--|
G:----------------------------------|-----------------------------------|--|
C:----------333-222-555-333-222-333-|----------333-222-555-333-222-333--|--|
D:-222222-55------------------------|-222222-55-------------------------|--|
...... ..... ... ... ... ... ... ...... ..... ... ... ... ... ...

Guitar 1
D:------------------|------------------|----|
A:------------------|------------------|----|
F:------------------|------------------|----|
G:--------\9-9-9-/6-|--------\9-9-9-/6-|----|
C:--------\9-9-9-/6-|--------\9-9-9-/6-|----|
D:-000000-\9-9-9-/6-|-000000-\9-9-9-/6-|----|
...... ...... |-2x-|
Guitar 2 |----|
D:------------------|------------------|----|
A:------------------|------------------|----|
F:------------------|------------------|----|
G:--------\9-9-9-/6-|--------\9-9-9-/6-|----|
C:--------\9-9-9-/6-|--------\9-9-9-/6-|----|
D:-000000-\9-9-9-/6-|-000000-\9-9-9-/6-|----|
...... ......


Guitar 1
D:----------------------------------|-----------------------------------|--|
A:----------------------------------|-----------------------------------|--|
F:----------------------------------|-----------------------------------|--|
G:----------------------------------|-----------------------------------|--|
C:----------333-222-555-333-222-333-|----------333-222-555-333-222-333--|--|
D:-222222-55------------------------|-222222-55-------------------------|--|
...... ..... ... ... ... ... ... ...... ..... ... ... ... ... ... |2x|
Guitar 2 |--|
D:----------------------------------|-----------------------------------|--|
A:----------------------------------|-----------------------------------|--|
F:----------------------------------|-----------------------------------|--|
G:----------------------------------|-----------------------------------|--|
C:----------333-222-555-333-222-333-|----------333-222-555-333-222-333--|--|
D:-222222-55------------------------|-222222-55-------------------------|--|
...... ..... ... ... ... ... ... ...... ..... ... ... ... ... ...

Guitar 1
D:---------------------|---------------------|------|
A:---------------------|---------------------|------|
F:---------------------|---------------------|------|
G:-------------553000--|-------------553000--|------|
C:-------553000--------|-------553000--------|------|
D:-222222--------------|-222222--------------|------|
|--2x--|
Guitar 2 |------|
D:---------------------|---------------------|------|
A:---------------------|---------------------|------|
F:---------------------|---------------------|------|
G:---------------------|---------------------|------|
C:-2-------------------|-2-------------------|------|
D:-0-------------------|-0-------------------|------|
. .

Guitar 1
D:----------------|-----------|----------------|---------------|------|
A:----------------|-----------|----------------|---------------|------|
F:----------------|-----------|----------------|---------------|------|
G:--2\3-----2-----|-----------|--2\3-----2-----|-----5-7-5\6/5-|------|
C:--2\3-----2-----|-8-7-5-7-5-|--2\3-----2-----|-8-7-----------|------|
D:------0-0---0-0-|-----------|------0-0---0-0-|---------------|------|
. . . . . . . . |------|
Guitar 1 |--4x--|
D:----------------|-----------|----------------|---------------|------|
A:----------------|-----------|----------------|---------------|------|
F:----------------|-----------|----------------|---------------|------|
G:--2\3-----2-----|-----------|--2\3-----2-----|-----5-7-5\6/5-|------|
C:--2\3-----2-----|-8-7-5-7-5-|--2\3-----2-----|-8-7-----------|------|
D:------0-0---0-0-|-----------|------0-0---0-0-|---------------|------|
. . . . . . . .

Guitar 1
D:----------------------------|----------------------------|
A:----------------------------|----------------------------|
F:----------------------------|----------------------------|
G:--2\3-----------------------|--2\3-----------------------|
C:--2\3-----------------0-1-0-|--2\3-----------------0-1-0-|
D:------0-0-0-0-0-0-0-0-0-1-0-|------0-0-0-0-0-0-0-0-0-1-0-|
. . . . . . . . . . . . . . . . |
Guitar 2 |
D:----------------------------|----------------------------|
A:----------------------------|----------------------------|
F:----------------------------|----------------------------|
G:----------------------------|----------------------------|
C:----------------------------|----------------------------|
D:-00000000000000000000000000-|-00000000000000000000000000-|

Guitar 1
D:----------------------------|----------------------------|
A:----------------------------|----------------------------|
F:----------------------------|----------------------------|
G:--2\3-----------------------|--2\3-----------------------|
C:--2\3-----------------0-1-0-|--2\3-----------------0-1-0-|
D:------0-0-0-0-0-0-0-0-0-1-0-|------0-0-0-0-0-0-0-0-0-1-0-|
. . . . . . . . . . . . . . . . |
Guitar 2 |
D:----------------------------|----------------------------|
A:----------------------------|----------------------------|
F:----------------------------|----------------------------|
G:--2\3-----2-----2-----------|--2\3-----2-----2-----------|
C:--2\3-----2-----2-----------|--2\3-----2-----2-----------|
D:------0-0-0-0-0-0-0-0-0-0-0-|------0-0-0-0-0-0-0-0-0-0-0-|
. . . . . . . . . . . . . . . . . .

Guitar 1
D:----------------|-----------|----------------|---------------|
A:----------------|-----------|----------------|---------------|
F:----------------|-----------|----------------|---------------|
G:--2\3-----------|-----------|--2\3-----------|---------------|
C:--2\3-----------|-----------|--2\3-----------|---------------|
D:----------------|-----------|----------------|---------------|
|
Guitar 2 |
D:----------------|-----------|----------------|---------------|
A:----------------|-----------|----------------|---------------|
F:----------------|-----------|----------------|---------------|
G:--2\3-----2-----|-----------|--2\3-----2-----|-----5-7-5\6/5-|
C:--2\3-----2-----|-8-7-5-7-5-|--2\3-----2-----|-8-7-----------|
D:------0-0-0-0-0-|-----------|------0-0-0-0-0-|---------------|
. . . . . . . .

Guitar 1
D:----------------|-----------|----------------|---------------|------|
A:----------------|-----------|----------------|---------------|------|
F:----------------|-----------|----------------|---------------|------|
G:--2\3-----2-----|-----------|--2\3-----2-----|-----5-7-5\6/5-|------|
C:--2\3-----2-----|-8-7-5-7-5-|--2\3-----2-----|-8-7-----------|------|
D:------0-0-0-0-0-|-----------|------0-0-0-0-0-|---------------|------|
. . . . . . . . |--3x--|
Guitar 2 |------|
D:----------------|-----------|----------------|---------------|------|
A:----------------|-----------|----------------|---------------|------|
F:----------------|-----------|----------------|---------------|------|
G:--2\3-----2-----|-----------|--2\3-----2-----|-----5-7-5\6/5-|------|
C:--2\3-----2-----|-8-7-5-7-5-|--2\3-----2-----|-8-7-----------|------|
D:------0-0-0-0-0-|-----------|------0-0-0-0-0-|---------------|------|
. . . . . . . .

Guitar 1
D:-------------|---------------------|--------------------------|------|
A:-------------|---------------------|--------------------------|------|
F:-------------|---------------------|--------------------------|------|
G:-------------|---------------------|--------------------------|------|
C:-7-8---------|-8-----7-----8---7-8-|---------8888-------------|------|
D:-----00000000|---000---000---0-----|-00000000----888877779999-|------|
........ ... ... . ........................ |------|
Guitar 2 |--4x--|
D:-------------|---------------------|--------------------------|------|
A:-------------|---------------------|--------------------------|------|
F:-------------|---------------------|--------------------------|------|
G:-------------|---------------------|--------------------------|------|
C:-7-8---------|-8-----7-----8---7-8-|---------8888-------------|------|
D:-----00000000|---000---000---0-----|-00000000----888877779999-|------|
........ ... ... . ........................ |------|

Well there you go, i haven't figured out the solo, it's to freakin' complicated. It's a great song.

Like us on Facebook.....
-> Loading Time :0.0143 sec