War and Pain Tabs & Lyrics by Voivod

War and Pain

guitar tabs lyrics

Voivod

Album : War and Pain thrash metal PlayStop



------------------VOIVOD---WAR and PAIN-----tabbed by NICK WELCH--99--------

from the album WAR and PAIN
music by PIGGY ,lyrics by SNAKE

most of this is probaly wrong by other peoples standerds. but it sounds
right to me, so "EAT IT HARVEY"!

/-----------------------------------------------------------------------\

/-----------------------------------------------------------------------\
/-----------------------------------------------------------------------\
/----5--5--5---------5--5--5---------5--5--5---------5--5--5------------\
/----3--3--3----4----3--3--3----4----3--3--3----4----3--3--3----4-------\
/---------------2---------------2---------------2---------------2-------\


/-----------------------------------------------------------------------\
/-----------------------------------------------------------------------\
/----------5---------------5---------------5---------------5------------\
/----5--5--5---------5--5--5---------5--5--5---------5--5--5------------\
/----3--3.------4----3--3.------4----3--3.------4----3--3.------4-------\
/---------------2---------------2---------------2---------------2-------\

Guitar 1 go sommin like dis
C----2--3-3-3-3-3-3-3-3-3-3-3-3-3-3-3-3-3-3-3-3-3-3-3-3-3-3-3-3-3-------\

Guitar 2 as sole (corresponds wit de bove parts kay')
/-----------------------------------------------------------------------\
/-----------------------------------------------------------------------\
/---------------4----------4----------4-----4-----4---4--4-4-4-4--------\
/---------------2----------2----------2-----2-----2---2--2-2-2-2--------\
/-----------------------------------------------------------------------\
/-----------------------------------------------------------------------\

Back to Riff ALRIGHT! (lyrics included to grumble along with)
/-----------------------------------------------------------------------\
/-----------------------------------------------------------------------\
/-----------------5-----------------5-----------------5----\
/----5--5---------3----5--5---------3----5--5---------3---\ REPEAT TILL
/----3--3----4---------3--3----4---------3--3----4---------\ VERSE IS
/------------2-----------------2-----------------2--------\ FINISHED.

In the smoke of combat, No gods gives you the guts. -Back to Bridge-

/-----------------------------------------------------------------------\
/-----------------------------------------------------------------------\
/-----------------------------------------------------------------------\
/----------------------4--4--4----------------------5--5--5-----\ REPEAT
/----------------------2--2--2----------------------3--3--3-----\
/----2--3-3-3-3-3-3-3-------------2--3-3-3-3-3-3-3--------------\

You see the fire in the sky, The bombs fall by your side.
I put the powder in my gun, Let me free, Let me run.
Armed with swords and hash, I run, Kill, and Fight.
I remove the knife in your sore, I believe in the death's call.

/----------------------------------------------------------------------\
/--------------------------------------------------------------2(3)(2)>>>>>
/----4--4--5--7--4--4--2--2--2----4--4--5--7--4--4--2--2--2------------\
/----2--2--3--5--2--2--0--0--0----2--2--3--5--2--2--0--0--0------------\
/----------------------------------------------------------------------\
/----------------------------------------------------------------------\

I live to Kill, Create war and pain, You die for fire.
Your soul burns in flames.
/----------------------------------------------------------------------\ R
/----------------------------------------------------------------------\ I
/-------2--3--2--3--6-----2--3--2--3-------2--3--2--3--5-----2--3--2--3\ F
/----2--0--1--0--1--3--2--0--1--0--1----2--0--1--0--1--3--2--0--1--0--1\ F
/----0-----------------0----------------0-----------------0------------\
/----------------------------------------------------------------------\ 2
Riff 2, kinda -little bit of the solo-
/-----------------------------2--3--2--1--0-1-0-1--------TAP-PART------\
/----------------------------------------------------------------------\
/-------------3--3--3----\ part of solo
/----3--3--3--1--1--1----\
/----1--1--1-------------\
/--------------------------------------------------2-3-2-1-------------\

Our disaster is not complete today, We make no difference because
you fall in fate, The War punishes, and Pain resists
The wilderness shouts , the blood burst out
Were going in hell tonight, For another loud attack
And you see in the mist, Black flag is on my mast
The cannons creep, In your desert to kill
And no defense, No forces, You're the bloodlust victims.

Repeat "In the smoke" part
C /---3----------\
cool end part is just E /--------2-----\
Ahhhhhhhhhhhh

Like us on Facebook.....
-> Loading Time :0.0144 sec