Waiting On Me Tabs & Lyrics by Home Grown

Waiting On Me

guitar tabs lyrics

Home Grown

Album : Kings of Pop p-rock PlayStop


By:Matt Rodrigues
Band:Homegrown
song:Waiting on me
Album:Kings of pop #11

Intro1:Mess w/ 9 on d and 11 on g hit twice and move 9 to 7 on d hit twice!! and repeat a couple times

Intro2:x3 X1
e|-------------------------------------]------------------------------|
B|-------------------------------------]------------------------------|

G|--14-------6-------14-------13-------]--14--------16----------------|
D|--x--(x8)--x-(x4)--x--(x4)--x--(x16)-]--x--(x16)--x--(x16)----------|
A|--12-------4-------12-------11-------]--12--------14----------------|
E|-------------------------------------]------------------------------|

Verse:x2 palm muted-figure out picking its easy!!!
e|---------------------------------------------------------------|
B|---------------------------------------------------------------|
G|-----------------------------------------------------------------|
D|---------------------------------------------------------------|
A|---------------------------------------------------------------|
E|-11--9--11--7--9--6--7--9--11--9--------------------------------]

pre chorus:x1 (im comfertable to let you go)
e|------------------------------------------------------------------------|
B|------------------------------------------------------------------------|
G|------------------------------------------------------------------------|
D|--0--------2------------------------------------------------------|
A|--0-(x16)--2-(x16)-----------------------------------------------------|
E|--0--------2------------------------------------------------------|

chorus:x2 end this second x
e|---------------------------------------------------[----------------------|
B|---------------------------------------------------[----------------------|
G|------------------2--------------------------------[----------------------|
D|--4-------0-------2-(x4)--2--------0--------2------[--44-0-44-0-44--------|
A|--4-(x8)--0-(x4)--0-------2-(x16)--0-(x16)--2-(x16)[--44-0-44-0-44--------|
E|--4-------0---------------2--------0--------2------[--44-0-44-0-44--------|

repeat verse x2
repeat pre chorus x1


chorus:x2 end this second x
e|---------------------------------------------------[----------------------|
B|---------------------------------------------------[----------------------|
G|------------------2--------------------------------[----------------------|
D|--4-------0-------2-(x4)--2--------0--------2------[--0--------2-------4~-|
A|--4-(x8)--0-(x4)--0-------2-(x16)--0-(x16)--2-(x16)[--0-(x16)--2-(x16)-4~-|
E|--4-------0---------------2--------0--------2------[--0--------2-------4~-|

breakdown1:
e|-----------------[-----------------------]------------------------------|
B|-----------------[-----------------------]------------------------------|
G|-----------------[-----------------------]------------------------------|
D|-0~--2~--4~------[--0------2-------4-----]-0------2-------44-0-44-0-44--|
A|-0~--2~--4~--(x2)[--0-(x8)-2-(x8)--4-(x8)]-0-(x8)-2-(x8)--44-0-44-0-44--|
E|-0~--2~--4~------[--0------2-------4-----]-0------2-------44-0-44-0-44--|

breakdown2:x2
e|------------------------------------------------------------------------]
B|------------------------------------------------------------------------|
G|------------------------------------------------------------------------|
D|--0~--2~----------------------------------------------------------------|
A|--0~--2~----------------------------------------------------------------|
E|--0~--2~----------------------------------------------------------------|


ending chorus:x2
e|---------------------------------------------------[--------------------|
B|---------------------------------------------------[--------------------|
G|------------------2--------------------------------[--------------------|
D|--4-------0-------2-(x4)--2--------0--------2------[--0--------2--------|
A|--4-(x8)--0-(x4)--0-------2-(x16)--0-(x16)--2-(x16)[--0-(x16)--2-(x16)--|
E|--4-------0---------------2--------0--------2------[--0--------2--------]

ending:x1
e|------------------------------------------------------------------------|
B|------------------------------------------------------------------------|
G|------------------------------------------------------------------------|
D|---4~-44-4--0~-00-0---2~------------------------------------------------|
A|---4~-44-4--0~-00-0---2~------------------------------------------------|
E|---4~-44-4--0~-00-0---2~------------------------------------------------|
.... ....

thats it hope u like it didnt see a tab for it so i thought id figure it out not
100 percent sure but its damn close!! hope u enjoy!! if u want the solo e-mail me
at fenderstratman44@aol.com

Like us on Facebook.....
-> Loading Time :0.0068 sec