Vengeance Is Mine Tabs & Lyrics by Morbid Angel

Vengeance Is Mine

guitar tabs lyrics

Morbid Angel

Album : Covenant death metal PlayStop


Title:vengeance is mine
Artist:morbid angel
Album:covenant

Version 1.1

Tabbed by sytry
Send any comments or corrections to: sytry3@libero.it

============================================================================

Notation: b = full bend / = slide up a.h. = artificial
r = release \ = slide down harmonic
~ = vibrato h = hammer-on tr = trillo
. = palm mute(pm) p = pull-off t = tapping
============================================================================
Tuning: Eb Bb Gb Db Ab Eb



intro
|-----------|
|-----------|
|-----------|
|-----------|
|-3-3-3-3---|
|-1-1-1-1---|


riff a x5
|---------------------------------------------------------------------------|
|---------------------------------------------------------------------------|
|---------------------------------------------------------------------------|
|---------------------------------------4-----------------------------------|
|--------------5/6/5-------------5/6/5--2-----------------------------------|
|-111111111111-3/4/3-11111111111-3/4/3--------------------------------------|


riff b x2
|---------------------------------------------------------------------------|
|---------------------------------------------------------------------------|
|---------------------------------------------------------------------------|
|---------------------------------------------------------------------------|
|--------------------------------------------------------------------7------|
|-2222222-6/5555555-9/88888888-55555555-2222222-6/5555555-9/88888888-5------|


1:30
riff x8
|---------------------------------------------------------------------------|
|---------------------------------------------------------------------------|
|---------------------------------------------------------------------------|
|---------------------------------------------------------------------------|
|---------------------------------------------------------------------------|
|-66666666-55555555-22222222------------------------------------------------|



|---------------------------------------------------------------------------|
|---------------------------------------------------------------------------|
|---------------------------------------------------------------------------|
|---------------------------------------------------------------------------|
|----------------------???--------------------------------------------------|
|-2222-3333-6666-2222-------2222-3333-6666-7777-6666-3333-6666--------------|



|----------------------------|
|----------------------------|
|----------------------------|
|----(1)-(0)------------------|
|(2)--2---1--1h4p2p1----------|
|-3--------------------------|
gtr2 harmonize this a major third ()




the solo start whit that weird sound.you has to slide this chord up on the neck
and pick somwhere.an effect like harmonaizer too...

|------------------19----------------------------14-15-17~~-15p14p----------|
|---------------------------------------14-16-17------------------17p15p14--|
|------------------------------14-15-17-------------------------------------|
|------------------------16-17----------------------------------------------|
|-1/////////16--------------------------------------------------------------|
|-2/////////17--------------------------------------------------------------|


|-17tr20--20b-20b---------------------------17-18-17-18-17-18-17-18---------|
|-------------------------19a.h.--------------------------------------------|
|---------------------------------------------------------------------------|
|---------------------------------------------------------------------------|
|---------------------------------------------------------------------------|
|-------------------///------------3^---------------------------------------|
bend and bar down
2:20
|-20-18-17-15-20-18-17-15-20-18-17-15----17-20-17-------------------------------22b-|
|-------------------------------------------------20-17-------20p19p17-20p19p17-----|
|-------------------------------------------------------19-17-----------------------|
|-----------------------------------------------------------------------------------|
|-----------------------------------------------------------------------------------|
|-----------------------------------------------------------------------------------|
tremolo pick


this solo is very fast and very difficoult to play...it need a lot of time to get
speed at which he play those phrases...


Like us on Facebook.....
-> Loading Time :0.0092 sec