Untrustable Tabs & Lyrics by Built to Spill

Untrustable

guitar tabs lyrics

Built to Spill

Album : 2001-06-21: Eugene, OR, USA indie rock PlayStop


Tabbed by:CMM
Email:colin_michael_muppet@hotmail.com

Tuning:Standard

(Intro Chord Progression)
e|-0---1---|
B|-1---1---|
G|-2---2---|
D|-2---3---|

A|-0---3---|
E|-----1---|
Am F


(Verse Chord Progression)
e|-0---0---1---1---|
B|-1---1---3---1---|
G|-0---2---2---2---|
D|-2---2---0---3---|
A|-3---0-------3---|
E|-------------1---|
C Am Dm F

Note: During the Verse a second guitar picks notes out of the bar chords of the chords listed above.


(Lyrics/Chords)

(Intro)Am

F C Am Dm
You can't trust anyone, Because you're untrustable, How can you trust

F C
someone you know, Can't trust you? You won't help anyone, Because you're

Am Dm F
unusable, No one can tie you down, You're nobody's fool


(Chorus Chord Progression)
e|-0---0---3---1---|
B|-1---1---3---1---|
G|-2---0---0---2---|
D|-2---2---0---3---|
A|-0---3---2---3---|
E|---------3---1---|
Am C G F


(Lyrics/Chords)
Am C G F Am
And I'd love to see it but i'ts something you just feel

C G F Am
And I'd love to feel it but it just isn't real

C G F Am C G F
And god is whoever you're performing for, and god is whoever you perform for


(Post Chorus)
e|---------------------------------|
B|---------------------------------|
G|-9\7--7--7\5--5--5/7--7--7/9--9--|
D|-x-x--x--x-x--x--x-x--x--x-x--x--|
A|-7\5--5--5\3--3--3/5--5--5/7--7--|
E|---------------------------------|


(Lyrics/Chords)

(Intro)Am

F C Am Dm
You don't like anything, Because you're unlikable, All because you're not

F C Am
interested in you anymore, It's so unthinkable, Becuase you don't think of

Dm F
it, How many ideas can fit in your, Reality?


Am C G F Am
And I'd love to see it but i'ts something you just feel

C G F Am (Guitar Solo)
And I'd love to feel it but it just isn't real

C G F Am C G F


(Guitar Solo)
e|-------8-------8-------8-------8-------8--------8-------8-------8----/12-|
B|-------------------------------------------------------------------------|
G|--7b9-----7b9-----7b9-----7b9-----7b9-----7b9------7b9-----7b9-----------|
D|-------------------------------------------------------------------------|
A|-------------------------------------------------------------------------|
E|-------------------------------------------------------------------------|

e|--17---------------------------------------------------------------------|
B|-------17----------------------------------------------------------------|
G|-----------16p14--------16--14---------10--9------------10--9------------|
D|----------------------------------/12---------12---/12---------12---10---|
A|-------------------------------------------------------------------------|
E|-------------------------------------------------------------------------|


(Lyrics/Chords)

Am C G F Am
And I'd love to see it but i'ts something you just feel

C G F Am
And I'd love to feel it but it just isn't real

C G F Am C G F
And god is whoever you're performing for, and god is whoever you perform for


(Final Post Chorus Variation)
e|---------------------------------------------------------------------|
B|---------------------------------------------------------------------|
G|-9/10--10--10\9--9--9/10--10--10\9--9--12--x-x--9--10--10--10--10\9--|
D|-x--x---x---x-x--x--x--x---x---x-x--x---x--x-x--x---x---x---x---x-x--|
A|-7/-8---8---8\7--7--7/-8---8---8\7--7--10--x-x--7---8---8---8---8\7--|
E|---------------------------------------------------------------------|

(Second Guitar Riff)
e|-------------12-----------------|
B|-13--15--15----------12---------|
G|----------------------------14--|
D|--------------------------------|
A|--------------------------------|
E|--------------------------------|

No part 2 yet, just like the single.

| / slide up
| \ slide down
| h hammer-on
| p pull-off
| ~ vibrato
| + harmonic
| x Mute note
===============================================================================

Like us on Facebook.....
-> Loading Time :0.0126 sec