Trouble Every Day Tabs & Lyrics by Frank Zappa

Trouble Every Day

guitar tabs lyrics

Frank Zappa

Album : Strictly Commercial: The Best of Frank Zappa rock PlayStop


----------------------------------------------------------------------------
Trouble Every Day - Frank Zappa
From:
"Freak Out"
----------------------------------------------------------------------------
Tabbed by: Kennezar (Kenneth Dale Harris IV)
Email: kenny4@kdharris.net

Tuning: Standard
Main Verse: Play through-out verse.

e|----0----------------------------0---------------------------------|
B|-------3-2--------------------------3-2----------------------------|
G|------------2^^^^^4^2--0----------------2^^^^^4^2--0---------------|
D|-------------------------2--0h2----------------------2--0h2--------|
A|-------------------------------------------------------------------|
E|-0----------------------------0---------------------------0--------|

e|--------0-------------0---------------------|
B|----------0-------------3-------------------|
G|-2-2-/2-----2--4-4-/4-----4-----------------|
D|--------------------------------------------|
A|--------------------------------------------|
E|--------------------------------------------|

e|-----------12------------------------------------------|
B|--------12----15p12------------------------------------|
G|-14^16--------------14-12------------------------------|
D|--------------------------14-12-12-12h14-12h14~--------|
A|-------------------------------------------------------|
E|-------------------------------------------------------|

| / slide up
| \ slide down
| h hammer-on
| p pull-off
| ~ vibrato
| + harmonic
| x Mute note
============================================================================


Like us on Facebook.....
-> Loading Time :0.0159 sec