Tracy Tabs & Lyrics by Mogwai

Tracy

guitar tabs lyrics

Mogwai

Album : Young Team post-rock PlayStop


-------------------------------------------------------------------------------
MOGWAI - "Tracy"
-------------------------------------------------------------------------------

Tabbed by: thom

This is the riff from "Tracy", accompanied by a Glockenspiel.

Em C7M
> >

E E E E E E E E E E E E E E E E
E||---------------------------|--------------------------|
B||-----0-----0-----0---------|--------0-----0-----------|
G||--------0-----------0------|-----0-----0-----0--2--0--|
D||--2-----------2------------|--------------------------|
A||-----------------------3---|--L-----------------------|
E||---------------------------|--------------------------|


G D
> >
E E E E E Q E W
-------------------------|--------------------||
-------------------------|--------------------||
--------0-----0----------|-------------------*||
-----------------4----0--|--L----------------*||
-----2-----2-------------|--------------------||
--3----------------------|--------------------||

Duration Legend
---------------
W - whole
Q - quarter
E - 8th

Tablature Legend
----------------
L - tied note
> - accentuded note

===============================================================================

Like us on Facebook.....
-> Loading Time :0.0144 sec