Torture Killer Tabs & Lyrics by Six Feet Under

Torture Killer

guitar tabs lyrics

Six Feet Under

Album : Maximum Violence death metal PlayStop


Tabbed by:THE SANDMAN
Email:ryan5@iamwasted.com


|--------------------------------|
|--------------------------------|
|------------6-------------------|
|6-----5-----6-----6-----4---3---|
|6-----5-----4-----6-----4---3---|
|4-0-0-3-0-0---0-0-4-0-0-2-0-1-0-|

. . . . . . . . . .
Riff 1b
|--------------------------------|
|--------------------------------|
|------------6-------------------|
|6-----5-----6-----6-----3---2---|
|6-----5-----4-----6-----3---2---|
|4-0-0-3-0-0---0-0-4-0-0-1-0-0-0-|
. . . . . . . . . .
Chorus (Murderer! I rape the dead! Torture Killer!)
|--------------------------------------------|
|--------------------------------------------|
|--------------------------------------------|
|----2------------2------------2---------2---|
|2-2-2--------2-2-2--------2-2-2-------2-2---|
|0-0-0--------0-0-0--------0-0-0-------0-0---|
. . . . . . .
Solo (gradually pull the whammy bar up on the 9's)
|----------------------------------------------------|
|----------------------------------------------------|
|9~~~~9~~~~9~~~~9~~~~6---5---8---7---10--9---12--11--|
|----------------------------------------------------|
|--------------------4---3---6---5---8---7---10--9---|
|----------------------------------------------------|

Like us on Facebook.....
-> Loading Time :0.0089 sec